Guitar Tabs, Chords and Lyrics


La La Lie   Jacks Mannequin



The whole song goes like this :

e----------------------------------------------------------|
b----------------------------------------------------------|
g-8----7------------2--------------------------------------|
d-8----8----5-------3--------------------------------------|
a-6----8----5-------3--------------------------------------|
E------6----3-------1--------------------------------------|


e----------------------------------------------------------|
b-----------4----------------------------------------------|
g-8----7----5-------2--------------------------------------|
d-8----8----5-------3--------------------------------------|
a-6----8----3-------3--------------------------------------|
E------6------------1--------------------------------------|


Guess what, I'm done writing you songs

You'll give up your job at the bank

Proving money's not fun when you're gone

So this is the first verse

It's not very long

But I'm ready to move on

Guess what, I'm done writing your book
The ending got twisted around
But for all of a hell that it took
The electrical wires
They'll hum in the walls
In the room that I rent now

Well actually I've got friends who (la la lie)
Will help me pull through (la la la lie la la la lie)
The spaceman that can't get high
I'm coming back to my girl by July


Yeah, yeah, yeah.

That's right.

So, guess what, I'm done drawing you pictures
I'm dulling the day with a drink
In the parking garage by the theater
We met for a movie
Every scene was a sign
We made out through their meaning

Well I've got friends who (la la lie)
Will help me pull through (la la la lie la la la lie)
The spaceman can't get high
I'm coming back to my girl by July
Yeah, yeah, yeah!

Yeah!

Guess what? I'm done writing you songs
I'm far too unstable to settle
I doubt that the doctors are wrong
So wait by a palm tree, a palm tree, a palm tree


Well I've got friends who (la la lie)
To help me pull through (la la la lie la la la lie)
The spaceman can't get high
I'm coming back to my girl by July
Well I've got friends who (la la lie)
Oh she'll help me to pull trough (la la la lie la la la lie)


The song for a long goodbye
I'm coming back ,I'm coming back to my girl
La la la lie, back to my girl (la la la lie la la la lie)
The song for a long goodbye


Important: The song above is NOT stored on the Chordie server. The original song is hosted at www.guitaretab.com. Chordie works as a search engine and provides on-the-fly formatting. Chordie does not index songs against artists'/composers' will. To remove this song please click here.

This song is displayed as text-only. Transposing and tuning is only available for chordpro-songs.

Login - add to songbook

Rating click stars to rate

Layout
Accuracy

SHARE PAGE  




You need to log in to post comments