Jamaica Say You Will

Jackson Browne

-------------------------------

-0---------------2------------ The opening is
-1---------------2------------ finger picked.
-2---------------2----------2- After you get
-2-----0--2-----0---2--4---- comfortable
-0---4------------------------ with the bass
-------------------2--------------------| freely.
-0----------------0---------------------|
-1----------------2---------------------|
-2----------------1---------------------|
-2----0--2----- 2-----------------------|
-0--4-------4---------------------------|

 EA
Jamaica was the lovely one, I played her well
 E/G#F#mF#m/BEA/B
 As we lay in the tall grass, where the shadows fell          
 EA
 Hiding from the children so that they would not tell   
 E/G#F#mF#m7
 We would stay there till her sister rang the evening bell
 EE7A
Jamaica say you will, help me find
 EE7A
A way   to    fill, these empty hours
 EG#m/D#C#mC#m/BAE/G#B7
 Say       you         will,     come again tomorrow      

2nd Verse

The daughter of a captain on the rolling sea
She would stare across the water from the tree
Last time he was home he held her on his knee
Said the next time they would sail away
Just where they pleased
Jamaica say you will, help me find
A way to fill, these lifeless sails
And stay until my ships cab find the sea

Fill

-----------------------------------------------|
-2---0---2------2---0---2----2--0--2--0--------|
-2---4---2------2---4---2----2--4--2--1--------|
-2---2---2------2---2---2----2--2--2--2--------|
-0----------------0------------ 0---------2----|
------4---2-----------4---2-------4--2--0------|


Then repeat intro

3rd Verse
Jamaica was a sweet young one, and I loved her true
She was a comfort and a mercy through and through
Hiding from this world togethor, next thing I knew
She had brought her things, down to the bay
What could I do
Jamaica say you will, help me find
A way to fill, these sails
And then we'll sail until our waters have run dry

Repeat Intro to end.

Because this song was written on the piano, it doesn't
translate easily. I have also played it with a capo on the
third fret (E chord gets fingered as a C etc.), but I like the
depth of the bass runs better in the first position.
Enjoy.


A A/B B7 C#m C#m/B E E/G# E7 F#m F#m/B F#m7 G#m/D#
variations - click chord images
Transpose chords:
Tuning:
Cool service:
View: Size:
A  A  A
Rating:
Layout:
  • Currently 3.3/5 Stars.
  • 1
  • 2
  • 3
  • 4
  • 5
 
Accuracy:
  • Currently 3/5 Stars.
  • 1
  • 2
  • 3
  • 4
  • 5
 
click stars to rate
Chordie recommends:
Learn how to play guitar at JamPlay.com
Songbook:
Login to add this song to your songbook
Support the artist
Preview/buy this song
MSN Music
Why this non-profit ad?

 
login to add comments/video/corrections