Guitar Tabs, Chords and Lyrics


12x12  Jacob Rogers

  [Cm]   [Dm]   [Eb]   [F]  [Gm]   [Bb]                                                                            
|-3--5--6--1--3--1--|
|-4--6--8--1--3--3--|
|-5--7--8--2--3--3--|
|-5--7--8--3--5--3--|
|-3--5--6--3--5--1--|
|----------1--3-----|


I woke up in[Gm] handcuffs
Last thing I know I was [Cm]in the club
With my arms[Bb] around a prett[Dm]y girl  [Gm]
After that I'm n[Cm]ot sure [Bb]    [Dm]
[Gm]What could have gone wrong
I don’t kn[Cm]ow  [Bb]
[Dm]I’ve been askin[Gm]g myself
Seating inside thi[Cm]s 12 bar[Bb] 12 [Dm]     [Gm]

[Cm]We had a good time [Eb]
We had, we had
a good, good time
[Gm]good time good, good ti[F]me
[Bb]we had
we had
a good good time
[Cm]we had, we had, we had a t[Bb]ime


[Gm]   [Cm]      [Dm]                            
[Gm]   [Cm]   [Bb]   [Dm]I’ve still got my h[Gm]andcuffs
And you know sure as [Cm]hell
I ca[Bb]n regret[Dm] what I can remembe[Gm]r
So it[Cm] wasn’t wrong [Bb]   [Dm]
[Gm]You’ve got a problem
Gtr2 1st ending 2nd ending
|------------------------------|----------|-----6—8/10-|
|--8-66-----8-66-----8-66------|-8-66-----|-6-8--8-----|
|-------7--------7-5------7----|-----7----|------------|
|-5-------5------------------8-|----------|------------| x2
|------------------------------|----------|------------|
|------------------------------|----------|------------|


no I’m f[Cm]ine,[Bb] fi[Dm]nd a way [Gm]
Sitting inside [Cm]this 12 [Bb]bar[Dm] 12  [Gm]

[Cm]We had a good time [Eb]
We had, we had
a good, good time
[Gm]good time good, good ti[F]me
[Bb]we had
we had
a good, good time
[Cm]we had we had we had a ti[Bb]me   [Gm]


Gtr1
|-----------------------------------------------------|
|-----------------------------------------------------|
|-----------------------------------------------------|
|-------------------------5------------5-5------------|
|------------------------5---6-66-6-6------5-5--8-888-|
|-3-33-3-3--3-3--3-3----8-----------------------------|


solo

|-10b-10-10-10-10-10-10-10-8---------------|
|----------------------------10-8------8---|
|---------------------------------7-10-----|
|------------------------------------------|
|------------------------------------------|
|------------------------------------------|
|-10b-10-10-10-10-10-10-8-8------11-10-------------------|
|-----------------------------10-------11-8----8-6-10/0--|
|-------------------------------------------7------------|
|--------------------------------------------------------|
|--------------------------------------------------------|
|--------------------------------------------------------|



there's some chords missing down here, but i got some right.

[Gm]last night was all k[F]inds of [Gm]fun
[F]and I’m sure there’ll b[Eb]e another one[Gm] to come

[Gm]   [Am]   [F]  [Bb]                             
Anything: magnificent_adroitness@hotmail.com

Maximo

Important: The song above is NOT stored on the Chordie server. The original song is hosted at www.guitaretab.com. Chordie works as a search engine and provides on-the-fly formatting. Chordie does not index songs against artists'/composers' will. To remove this song please click here.

Text color:
Chord color:
Chord grids: 
Font size:    
Page size: 

Am Bb Cm Dm Eb F Gm
variations - click chord images

Login - add to songbook

Transpose chords

Tuning

Rating click stars to rate

Layout
Accuracy

SHARE PAGE  




You need to log in to post comments