Guitar Tabs, Chords and Lyrics


Ahi Aprendi  Jaguares

e|-0-0-0--2-2-2-2--0-0-0--2-2-2-2--|


B|-3-3-3--3-3-3-3--3-3-3--3-3-3-3--|


G|-2-2-2--2-2-2-2--2-2-2--2-2-2-2--| X2

D|-0-0-0--0-0-0-0--0-0-0--0-0-0-0--|
A|---------------------------------|
E|---------------------------------|
Contemp[A5]lándote
Entre los t[B5]iempos
me [D5]perdí, y no quise s[B5]alir.
Chorus:
Y a[B5]hí, apren[A5]
Que n[B5]o se  vi[A5]vir


Verse 3:
D* D
Tu bondad abrazó
El dol[A5]or que hay en mí
Entre el consu[B5]elo me p[D5]erdí
y no quise sa[B5]lir


Chorus:
Y a[B5]hí, apren[A5]
Que n[B5]o se  vi[A5]vir
Y a[B5]hí, apren[A5]
Que n[B5]o se  mo[A5]rir

Solo:
e|----------------------------------------------------------|
B|----------------------------------------------------------|
G|-16-17-16-17-16-17-16-17-16-17-16-17-17--17\16-16---16\---|
D|----------------------------------------------------------|
A|----------------------------------------------------------|
E|----------------------------------------------------------|
e|-------------------------------------|
B|-------------------------------------|
G|-------------------------------------|  X2
D|--9\7-7~--7-7h9--9-9/10--------------|
A|-------------------------------------|
E|-------------------------------------|


Chorus:
Y a[B5]hí, apren[A5]
Que n[B5]o se  mo[A5]rir.    M[A5]orir    [C5]     [A5-A5]


Chords Used:
D* D A5* A5 B5* B5 D5 C5
e|-0---2----------------------------|
B|-3---3----------------------------|
G|-2---2---2-------4-------7--------|
D|-0---0---2---7---4---9---7---10---|
A|-x---x---0---7---2---9---5---10---|
E|-x---x---0---5---x---7---x---8----|


/ slide up
\ slide down
h hammer on
p pull off
~ vibrato
x Mute note

Comments, corrections or anything else, to my e-mail.

Important: The song above is NOT stored on the Chordie server. The original song is hosted at www.guitaretab.com. Chordie works as a search engine and provides on-the-fly formatting. Chordie does not index songs against artists'/composers' will. To remove this song please click here.

Text color:
Chord color:
Chord grids: 
Font size:    
Page size: 

A5 B5 C5 D5
variations - click chord images

Login - add to songbook

Transpose chords

Tuning

Rating click stars to rate

Layout
Accuracy

SHARE PAGE  




You need to log in to post comments