Dil Haray

Jal

e|-------3-----2----5-2h3--------3-----2----3--------------------|

B|-----3-----3---3-------------3-----3---3--3--------------------|
G|---0-----0-----------------0-----0--------0--------------------|
D|-0----------------------------------------0--------------------|
A|---------------------------------------------------------------|
E|---------------------------------------------------------------|
e|-------3-----2----5--2h3-------3-----2----3--------------------|
B|-----3-----3---3-------------3-----3---3--3--------------------|
G|---0-----0-----------------0-----0--------0--------------------|
D|-0----------------------------------------0--------------------|
A|---------------------------------------------------------------|
E|---------------------------------------------------------------|
e|-------7-----5-----8-5h7------7------5----7--------------------|
B|-----7-----7---7------------7------7---7--7--------------------|
G|---0-----0----------------0------0--------0--------------------|
D|-0----------------------------------------0--------------------|
A|---------------------------------------------------------------|
E|---------------------------------------------------------------|
e|-------3-----2----5-2h3--------3-----2----3--------------------|
B|-----3-----3---3-------------3-----3---3--3--------------------|
G|---0-----0-----------------0-----0--------0--------------------|
D|-0----------------------------------------0--------------------|
A|---------------------------------------------------------------|
E|---------------------------------------------------------------|
e|--33-xxx-33-xxx-33-xxxxxxxx------------------|
B|--33-xxx-33-xxx-33-xxxxxxxx------------------|
G|---------------------------------------------|
D|---------------------------------------------|
A|---------------------------------------------|
E|---------------------------------------------|
e|--33-xxx-33-xxx-33-xxx-33xx-33xx-------------|
B|--33-xxx-33-xxx-33-xxx-33xx-33xx-------------|
G|---------------------------------------------|
D|---------------------------------------------|
A|---------------------------------------------|
E|---------------------------------------------|
E|-33-x-xxxxx-xx-xx-x-xxxxx--------------------|
A|-55-x-55555-xx-33-x-77777--------------------|
D|-55-x-77777-xx-55-x-99999--------------------|
G|------77777-xx-55-x-99999--------------------|
B|---------------------------------------------|
e|---------------------------------------------|
E|-33-x-xxxxx-xx-xx-x-xxxxx--------------------|
A|-55-x-55555-xx-33-x-22222--------------------|
D|-55-x-77777-xx-55-x-44444--------------------|
G|------77777-xx-55-x-44444--------------------|
B|---------------------------------------------|
e|---------------------------------------------|
E|-33-x-xxxxx-xx-xx-x-xxxxx--------------------|
A|-55-x-55555-xx-33-x-77777--------------------|
D|-55-x-77777-xx-55-x-99999--------------------|
G|------77777-xx-55-x-99999--------------------|
B|---------------------------------------------|
e|---------------------------------------------|
E|-33-x-xxxxx-xx-xx-x-xxxxx--------------------|
A|-55-x-55555-xx-33-x-22222--------------------|
D|-55-x-77777-xx-55-x-44444--------------------|
G|------77777-xx-55-x-44444--------------------|
B|---------------------------------------------|
e|---------------------------------------------|

 GCadd9
 ankhon se, jab bhi hon teri ankhen juda
 GCadd9
 mann se, jab bhi ho tera mann khafa
 DEm
 tau jee pukare, pukare tujhe
 DEm
 mann ghabraye, bulaye tujhe
 GDEmC
 ke dil haare, pukare tujhe
 GDEmC
 mann ja re, mana le mujhe
 GDEmC
 sunn pyare, lagale galle
 GDEmC
 kho ja re, tu gaa le sang re

 GCadd9
 tere bina, zindagi lage saza
 GCadd9
 tera saath ho, yeh saza lage juza
 GD
tau barhte jaen raste sare,
 GEm
dunya peeche hum hain aage

 GDEmC
 ke dil haare, pukare tujhe
 GDEmC
 mann ja re, mana le mujhe
 GDEmC
 sunn pyare, lagale galle
 GDEmC
 kho ja re, tu gaa le sang re

 G
 ke dil haare, pukaare
 Cadd9
 mann ja re, mana le
 G
 ke dil haare, pukaare
 Cadd9
 mann ja re, mana le


C Cadd9 D Em G
variations - click chord images
Transpose chords:
Tuning:
Cool service:
View: Size:
A  A  A
Rating:
Layout:
  • Currently 3.4/5 Stars.
  • 1
  • 2
  • 3
  • 4
  • 5
 
Accuracy:
  • Currently 3/5 Stars.
  • 1
  • 2
  • 3
  • 4
  • 5
 
click stars to rate
Chordie recommends:
Get acoustic guitar lessons and electric guitar lessons at JamPlay.com
Songbook:
Login to add this song to your songbook
Support the artist
Preview/buy this song
MSN Music
Why this non-profit ad?

 
login to add comments/video/corrections