Guitar Tabs, Chords and Lyrics


Aunties And Uncles  Jam

  [G#]   [A]   [G#]   [A]                                                                         
--4--5--4--5--|--------6--7--|--|
--4--5--4--5--|--4--5--------|--|
--5--6--5--6--|--------------|--| (x2)
--6--7--6--7--|--------------|--|
--6--7--6--7--|--------------|--|
--4--5--4--5--|--------------|--|


A E (x2)

[A] Aunties and [E]uncles -
[A] And people who [E]like us,
But [D]keep us apart all the [A]same.      [E]
[A] Friends and re[E]lations -
[A] We're public re[E]lations,
And we [D]know in our hearts that we're
[Dm]Playing a part, me and [A]you.

[D] One day [G]they will know
[D] We don't [G]need 'em no more
And my [G]confidence is coming
From the knowledge of knowing -
[D]Love is a-growing [A]fast.


[A] Aunties and [E]uncles -
[A] Who try to [E]help us
By su[D]ggesting what they think is [A]best.      [E]
[A] The people a[E]round me -
[A] Are looking for [E]something,
But [D]I've become blind 'cos I've [Dm]found what I'm [A]looking for
[D] One day [G]they will see,
[D] One day only [G]you and me
And my [G]confidence is coming
From the knowledge of knowing
[D]Love is a-growing [A]fast.


    [A]             [E]               [A]              [E]               [D]                       
 |------------|--------------|-------------|--------------|--------------|--|
 |------------|--------------|-------------|--------------|--7--5-----5--|--|
 |------6-7-9-|--6--4--------|------6-7-9--|--6--4--------|--------7-----|--|
 |------------|--------------|-------------|--------------|--------------|--|
 |------------|--------------|-------------|--------------|--------------|--|
 |------------|--------------|-------------|--------------|--------------|--|

    [A]             [E]               [A]              [E]               [A]                       
 |------------|--------------|-------------|--------------|--------------|--|
 |------------|--------------|-------------|--------------|--------------|--|
 |-6-6-6-4--6-|--------------|------6-7-9--|--6--4--------|------6-7-9---|--|
 |------------|-4/6-6-6-4----|-------------|--------------|--------------|--|
 |------------|------------7-|-------------|--------------|--------------|--|
 |------------|--------------|-------------|--------------|--------------|--|

    [E]             [D]               [Dm]              [A]                                      
 |------------|--------------|-------------|--------------|--------------|--|
 |------------|--7--5--------|--6--5-----5-|--6-6-6-4--6--|--7--6--4-6-6-|--|
 |--6--4------|--------7-----|--------7----|--------------|--------------|--|
 |------------|--------------|-------------|--------------|--------------|--|
 |------------|--------------|-------------|--------------|--------------|--|
 |------------|--------------|-------------|--------------|--------------|--|

[D] One day [G]they will know
[D] We don't [G]need 'em no more
And my [G]confidence is coming
From the knowledge of knowing -
[D]Love is a-growing [A]fast.

[A] Aunties and [E]uncles -
[A] And people who [E]like us
But [D]keep us apart all the,
[Dm]Keep us apart all the,
[D]Keep us apart all the,
[Dm]Keep us apart all the [A]same.     [D]   [A]

Important: The song above is NOT stored on the Chordie server. The original song is hosted at www.guitaretab.com. Chordie works as a search engine and provides on-the-fly formatting. Chordie does not index songs against artists'/composers' will. To remove this song please click here.

Text color:
Chord color:
Chord grids: 
Font size:    
Page size: 

A D Dm E G G#
variations - click chord images

Login - add to songbook

Transpose chords

Tuning

Rating click stars to rate

Layout
Accuracy

SHARE PAGE  




You need to log in to post comments