Guitar Tabs, Chords and Lyrics


Yesterday  James Taylor

   [C]                  [Bm]        [E]          [Am]        [Am/C]          [F]        [G7]                            
E -0---------0-----|-----------------|-----0-------0---|---1---------1---|
H -----1-----------|-----0---------0-|-----------------|-----1-----------|
G ---0-----0-------|-2-----------1---|---2-------2---0-|0h2----2---2-----|
D ---------------0-|---0---0---2-----|-----------------|-----------------|
A -3-----3-----3---|-2---------------|-0-----0---------|-----------------|
E -+---+---+---+---|-+---+---0---+---|-+---+---3---+---|-1---+---3---+-3-|


   [C]          [E]        [Am]        [D]          [F]    [C]              [F]    [C]                                
E -----0-----------|-------0-------2-|-----0-----------|-----0-----------|
H -----1-------0---|-----1-------3---|-1---1-------1---|-1---1---1-------|
G ---0-----0---1---|---2-------2-----|-2-----0---0-----|-2-----0-------0-|
D ---------------2-|---------0-------|---0----0h2----2-|---0-------------|
A -3-----3---------|-0---------------|-3---3-----------|-3---3-----3-2---|
E -+---+---+-0-+---|-+---+---+---+---|-+---+---+---+---|-+---+---+---+---|

|< verse #1 + #2 >|< verse #3 >| -> (Ending)

(Chorus)

   [Bm]        [E]          [Am]    [Am/CF]              [G]                  [C]                                    
E -----------------|-----------------|-------------1---|-----0-------0---|
H -----0-------0---|-1---1-------1---|-0-----1-3-------|-------1-------1-|
G -2-----2-1-----1-|-2---2---------2-|-----0-----0---0-|---0-------0-----|
D ---0-------0-----|---2---2---3-----|---0-------------|-----------------|
A -2---------------|-0---------------|-------0-2-------|-3-------3-----3-|
E -+---+---0---+---|-+---3---1---+---|-3---+---+---+---|-+---+---+---+---|


   [Bm]        [E]          [Am]    [Am/CF]              [G]                  [C]        [F]                            
E -----------------|-----------------|-------------1---|-0---------1-----|
H -----0-------0---|-1---1-------1---|-0-----1-3-------|-----1-------1---|
G -2-----2-1-----1-|-2---2---------2-|-----0-----0---0-|---0----0h2----2-|
D ---0-------0-----|---2---2---3-----|---0-------------|-----------------|
A -2---------------|-0---------------|-------0-2-------|-3-----3---------|
E -+---+---0---+---|-+---3---1---+---|-3---+---+---+---|-+---+---1---+---|

(Ending)

   [Am]        [D]          [F]      [C]                                                                  
E -------3---0-1---|-----0-0---------|
H ---0-1---3-----3-|-1-----1---------|
G -2---------------|-2-----0---------|
D ---------0-------|---3-------------|
A -0---------------|-3-----3---------|
E -+---+---+---+---|-+---+---+---+---|


LYRICS

Yesterday, all my troubles seemed so far away,
now it looks as through they're here to stay oh I believe in yesterday
Suddenly I'm not half the man I used to be, there's a shadow hanging over me
oh yesterday came suddenly

(Chorus)
Why she had to go I don't know she wouldn't say
I said something wrong now I long for yesterday

Yesterday love was such an easy game to play now I need a place to hide away oh
I believe in yesterday

(Chorus)

Yesterday love was such and easy game to play now I need a place to hide away oh
I believe in yesterday


-----------------------------------------------------------

This is not the final version. If anyone has additions
or if the tab does not correspond with the original version
please feel free to let me know.

MarkusMauch@gmx.de
-----------------------------------------------------------				


Important: The song above is NOT stored on the Chordie server. The original song is hosted at www.guitaretab.com. Chordie works as a search engine and provides on-the-fly formatting. Chordie does not index songs against artists'/composers' will. To remove this song please click here.

Text color:
Chord color:
Chord grids: 
Font size:    
Page size: 

Am Am/C Bm C D E F G G7
variations - click chord images

Login - add to songbook

Transpose chords

Tuning

Rating click stars to rate

Layout
Accuracy

SHARE PAGE  




You need to log in to post comments