Chordie logo

Getting Away With It All Messed Up  James

-------------------------------------------------------------------------------



-------------------------------------------------------------------------------









e|-----1-1-----1---------1-1-----1---------0-0-----0---------3-----3---------|


B|---------3-----3-----------1-----1-----------1-----1---------0-----0-------|


G|---2-------2-----2---2-------2-----2---0-------0-----0---0-----0-----0-----|


D|-0-----------------3-----------------2-----------------0-------------------|


A|---------------------------------------------------------------------------|


E|---------------------------------------------------------------------------|













Are you aching for the [F]blade

That's O[C]K

We're in[G]sured                   [Dm]

Are you aching for the [F]grave

That's O[C]K

We're in[G]sured                   [Dm]


We're getting away with it, [F]all messed up

Getting away with it, [C]all messed up

That's the [G]living               [Dm]

Daniel's saving [F]grace

She's out in deep [C]water

Hope he's a good [G]swimmer        [Dm]

Daniel plays his [F]ace

Deep inside his [C]temple

He knows how to [G]surf her        [Dm]

Getting away with it, all messed up

Getting away with it, all messed up

That's the living

Getting away with it, all messed up

Getting away with it, all messed up

That's the living

Daniel drinks his weight

Drinks like Richard Burton

Dances like John Travolta

Now

Daniel's saving grace

He was all for drowning

Now they live like dolphins

We're getting away with it, all messed up

Getting away with it, all messed up

That's the living

We're getting away with it, all messed up

We're getting away with it, all messed up

That's the living

We're getting away with it, all messed up

We're getting away with it, all messsed up

That's the living

Are we getting away with it?

All messed up

Getting away with it, all messed up

That's the living

Important: The song above is NOT stored on the Chordie server. The original song is hosted at www.guitaretab.com. Chordie works as a search engine and provides on-the-fly formatting. Chordie does not index songs against artists/composers will. To remove this song please click here.

C Dm F G
variations - click chord images

Login - add to songbook

Transpose chords

Tuning

Rating click stars to rate

Layout
Accuracy

SHARE PAGE  

You need to log in to post comments