Guitar Tabs, Chords and Lyrics


Calm Down Dearest   Jamie T



A possible guitar tab for a great song
tabbed by Theo F
feel free to comment on this tab-teo113@hotmail.co.uk

Verse
e--------------------------------------------------------------------------|
B--------------------------------------------------------------------------|
G----7----------12----11----9------------11---9---7------------------------|
D----7----------12----12----9------------11---9---7------------------------|
A----5----------10----9-----7------------9----7---5------------------------|
E--------------------------------------------------------------------------|


Chorus (reverb effect would suit this bit)
                It's heavy, it's on my miiiind...
e----------------------------------------0---------------------------------|
B----7-----------------------------------5---------------------------------|
G----7-----------(strum gently)----------6---------(strum gently)----------|
D----7-----------------------------------7---------------------------------|
A----5-----------------------------------7---------------------------------|


Important: The song above is NOT stored on the Chordie server. The original song is hosted at www.guitaretab.com. Chordie works as a search engine and provides on-the-fly formatting. Chordie does not index songs against artists'/composers' will. To remove this song please click here.

This song is displayed as text-only. Transposing and tuning is only available for chordpro-songs.

Login - add to songbook

Rating click stars to rate

Layout
Accuracy

SHARE PAGE  




You need to log in to post comments