Guitar Tabs, Chords and Lyrics


Auf In Die Schlacht  Jan Hegenberg

D#|-------6--6--4--2--1~---1--|-------------------4--4--|


A#|--4~-----------------------|--2--2~-------2----------|


F#|---------------------------|-------------------------|

C#|---------------------------|-------------------------|
G#|---------------------------|-------------------------|
D#|---------------------------|-------------------------|
D#|--1s-2p-----1--------------|--------6--6--4--2--1~---1h-|
A#|--------4------4-----4~----|--4~------------------------|
F#|------------------3--------|----------------------------|
C#|---------------------------|----------------------------|
G#|---------------------------|----------------------------|
D#|---------------------------|----------------------------|
D#|-----------------------------|------------------------|
A#|--2--2~----------------------|------------------------|
F#|--------------1--1h-3p-1-----|------------------------|
C#|--------------------------3--|--1-----1-------1-------|
G#|-----------------------------|-----4------------------|
D#|-----------------------------|------------------------|
Ver[Em]abschiedet euch vom [D]Weib und vom Kind,
weils vie[A]lleicht eure letzten [C]Worte sind. [D]
[Em]Rüstet euch für die [D]große Schlacht,
die euch [A]dann zu Helden [C]macht. [D]
[Em]Auf in den Kampf für [D]Frieden und Ruhm,
eine [A]epische Schlacht soll [C]es sein. [D]
Trig[Em]ardons Streiter werden [D]niemals ruhn,
die [A]Welt vom Übel bef[C]reien. [D]
[C]Aaaaaaaahhhh hhhhhaaa
[D]aaaaaaaahhhh hhhhaaaa!
Chorus:

[Em]Schärft euer Schwert
[D]Spitzt euren Pfeil
Zieht [C]aus für Trigardons [A]Heil
Ve[Em]rgießt euren Schweiß
Ver[D]gießt eurer Blut
[A]Götter! gebt ihnen [C]Mut
[D]gebt ihnen [Em]Muuuuuu[D]uuuuut
gebt ihnen [C]Muuuuuu[A]uuuuut
gebt ihnen [Em]Muuuuuu[D]uuuuut
gebt ihnen [C]Muuuuuu[A]uuuuut

Verse 2:

[Em]Dieses Lied soll unsre [D]Krieger ehren,
ist ein [A]Nachruf von Stärke und [C]Mut. [D]
[Em]Freiheit, ist was [D]wir begehren,
[A]nieder mit des Feinden [C]Brut. [D]

[C]Aaaaaaaahhhh hhhhhaaa
[D]aaaaaaaahhhh hhhhaaaa!
Chorus:

[Em]Schärft euer Schwert
[D]Spitzt euren Pfeil
Zieht [C]aus für Trigardons [A]Heil
Ve[Em]rgießt euren Schweiß
Ver[D]gießt eurer Blut
[A]Götter! gebt ihnen [C]Mut
[D]gebt ihnen [Em]Muuuuuu[D]uuuuut
gebt ihnen [C]Muuuuuu[A]uuuuut
gebt ihnen [Em]Muuuuuu[D]uuuuut
gebt ihnen [C]Muuuuuu[A]uuuuut

Verse 3:

[Em] Ist das Feld auch vom [D]Blute getränkt,
hat [A]keiner von euch sein [C]Leben versch[D]enkt.
[Em]Denn eurer Weib ja und [D]euer Kind,
ein [A]Leben in Freiheit [C]verbringt. [D]

[C]Aaaaaaaahhhh hhhhhaaa
[D]aaaaaaaahhhh hhhhaaaa!
Chorus:

[Em]Schärft euer Schwert
[D]Spitzt euren Pfeil
Zieht [C]aus für Trigardons [A]Heil
Ve[Em]rgießt euren Schweiß
Ver[D]gießt eurer Blut
[A]Götter! gebt ihnen [C]Mut
[D]gebt ihnen [Em]Muuuuuu[D]uuuuut
gebt ihnen [C]Muuuuuu[A]uuuuut
gebt ihnen [Em]Muuuuuu[D]uuuuut
gebt ihnen [C]Muuuuuu[A]uuuuut
gebt ihnen [Em]Muuut

Important: The song above is NOT stored on the Chordie server. The original song is hosted at www.guitaretab.com. Chordie works as a search engine and provides on-the-fly formatting. Chordie does not index songs against artists'/composers' will. To remove this song please click here.

Text color:
Chord color:
Chord grids: 
Font size:    
Page size: 

A C D Em
variations - click chord images

Login - add to songbook

Transpose chords

Tuning

Rating click stars to rate

Layout
Accuracy

SHARE PAGE  




You need to log in to post comments