Guitar Tabs, Chords and Lyrics


00   Jane Air



"08-00" by Jane Air 
Pull Ya? Let It Doll Go! (2002)

Drop A# Tuning

Intro

^brb - bend/release/bend
\ - slide down

 c||------------------------13--13^brb--------------------13-------||
 g||------13------------13--13--13^brb----13--------------------13-||
D#||----------12----11------------------------12----11-------------|| 2x
A#||--11------------------------------11---------------------------||
 F||---------------------------------------------------------------||
A#||---------------------------------------------------------------||

Second time the last 13 is 13\

Intro 2\Break

 c||-----------------------------||
 g||-----------------------------||
D#||-----------------------------|| 4x
A#||--6----0-0-0----0-6---0-0-0--|| 
 F||--6----0-0-0----0-6---0-0-0--||
A#||--6----0-0-0----0-6---0-0-0--||

 c||-----------------------------||
 g||--9---------------9----------||
D#||--7---------------7----------|| 4x
A#||--6----0-0-0----0-6---0-0-0--|| 
 F||--6----0-0-0----0-6---0-0-0--||
A#||--6----0-0-0----0-6---0-0-0--||

Verse

 c||------------------------13--13-16-13----------------------13-------||
 g||------13------------13--13----------------13--------------------13-||
D#||----------12----11----------------------------12----11-------------|| 2x
A#||--11----------------------------------11---------------------------||
 F||-------------------------------------------------------------------||
A#||-------------------------------------------------------------------||

Sometimes instead of 13-16-13 there is 13h14p13\8

Chorus

 c||--------------------||
 g||--------------------||
D#||--------------------|| 4x
A#||--6----6--7----4----|| 
 F||--6----6--7----4----||
A#||--6----6--7----4----||

Bridge

 c||--6--6---6----6----6--6--6--6---6---6---||
 g||---10-10---10---10--10-10-10-10---10----||
D#||----------------------------------------|| 4x
A#||----------------------------------------|| 
 F||----------------------------------------||
A#||----------------------------------------||

Bridge 2

 c||-----------------14---------------15h18-15--------||
 g||--------------------------------------------------||
D#||--------------------------------------------------|| 4x
A#||--------------------------------------------------|| 
 F||------0-----0-------------0-----0-----------------||
A#||--00-00-00-00-0-------00-00-00-00-----------------||

Bridge 3

 c||-------------------||
 g||-------------------||
D#||-------------------|| 8x
A#||--0--06-0-0--0-6---|| 
 F||--0--06-0-0--0-6---||
A#||--0--06-0-0--0-6---||

Outro

 c||--21----20----------------21---||
 g||-----18----18-------18-19------||
D#||-------------------------------|| 4x
A#||----------------4x-------------|| 
 F||-------------------------------||
A#||-------------------------------||

The last 21 is tremolo



Important: The song above is NOT stored on the Chordie server. The original song is hosted at www.guitaretab.com. Chordie works as a search engine and provides on-the-fly formatting. Chordie does not index songs against artists/composers will. To remove this song please click here.

This song is displayed as text-only. Transposing and tuning is only available for chordpro-songs.

Login - add to songbook

Rating click stars to rate

Layout
Accuracy

Jango Player

SHARE PAGE  




You need to log in to post comments