Ball And Chain

Janis Joplin

 F#5E5B5A5C#5C5
e --------------------
B --------------------
G --------4--2---6--5-
D --4--2--4--2---6--5-
A --4--2--2--0---4--3-
E --2--0--------------


PART 1 | PART 2 | PART 3 |
e-------------|-------------|-------------|-------------|--------------|-------------|
B-------------|-------------|-------------|-------------|--------------|-------------|
G-------------|-------------|--4----4--2--|--4----4--2--|--6-----6--4--|--6----5--4--|
D--4----4--2--|--4----4--2--|--4----4--2--|--4----4--2--|--6-----6--4--|--6----5--4--|
D--4----4--2--|--4----4--2--|--2----2--0--|--2----2--0--|--4-----4--2--|--4----3--2--|
E--2----2--0--|--2----2--0--|-------------|-------------|--------------|-------------|


I'm not sure, but I think it is played in the standard blues pattern, meaning:
PARTS: 1 1 1 1
 3211
Have fun!

egrimate@yahoo.com





























A5 B5 C#5 C5 E5 F#5
variations - click chord images
Transpose chords:
Tuning:
Cool service:
View: Size:
A  A  A
Rating:
Layout:
  • Currently 2.8/5 Stars.
  • 1
  • 2
  • 3
  • 4
  • 5
 
Accuracy:
  • Currently 3.3/5 Stars.
  • 1
  • 2
  • 3
  • 4
  • 5
 
click stars to rate
Chordie recommends:
Get acoustic guitar lessons and electric guitar lessons at JamPlay.com
Songbook:
Login to add this song to your songbook
Support the artist
Preview/buy this song
MSN Music
Why this non-profit ad?

 
login to add comments/video/corrections