Guitar Tabs, Chords and Lyrics


All I Want Is You   Jars Of Clay








This is a great song that is very easy.  I don't have the lead part but here is the chords/tabs.
   1.__________  2.______________
e-|----------|--------------|
B-|----------|--------------|
G-|-9------6-|--9-----6---6-|
D-|-9------7-|--9-----7---7-|
A-|-7------7-|--7-----7---0-|
E-|-0------0-|--0-----0---0-|

Then,
e-|--0--0--0--|-
B-|--0--0--0--|-
G-|--1--4--6--|-
D-|--2--5--7--|-
A-|--2--5--7--|-
E-|--0--0--0--|-



Important: The song above is NOT stored on the Chordie server. The original song is hosted at www.guitaretab.com. Chordie works as a search engine and provides on-the-fly formatting. Chordie does not index songs against artists'/composers' will. To remove this song please click here.

This song is displayed as text-only. Transposing and tuning is only available for chordpro-songs.

Login - add to songbook

Rating click stars to rate

Layout
Accuracy

SHARE PAGE  




You need to log in to post comments