Guitar Tabs, Chords and Lyrics


Too Much Food  Jason Mraz

---2----0----0-----------2-----2-----5------7---


---2----0----2----2------2-----3-----5------7---


---3----1----2----4------2-----2-----6------8---

---4----2----2----3------0-----0-----7------9---
---4----2----0----4------------------7------9---
---2----0----------------------------5------7---
      [F#]1  +   2 +   [E]3 +   4    [A]+     1  +    2  +    [C#7]3     +     4     [F#]+    3x
||----0------0-----0---0------0---|----0----0-------0--0--0--0--0--0--0----||
||o-(11)\7---7\5---5/9-9-----10---|---10---10/14---14-14-14-14-12-12-11---o||
||--------------------------------|----------------------------------------||
||--------------------------------|----------------------------------------||
||o-------------------------------|---------------------------------------o||
||--------------------------------|----------------------------------------||


      [1]   ]    [2]  ]    [3]  ]    [4]     ]      [1]    ]    [2]    ]    [3]    ]    [4]    ]                  
  |---0------0-----0---0------0---|----------------------------------|
  |-(11)\7---7\5---5/9-9-----10---|----------------------------------|
  |-------------------------------|----------------------------------|
  |-------------------------------|----------------------------------|
  |-------------------------------|----------------------------------|
  |-------------------------------|----------------------------------|


Intro:
| F# E | A C#7 | F# E | A C#7 |

| F# E | A C#7 | F# E | Dmaj7 |


Verse:
||: F# E | A | D C#7 | F# |

| D C#7 | F# :||


Chorus:
||: F# | A(bar) | B | F# :||


Interlude:
| F# E | A C#7 | F# E | Dmaj7 |
(it's just a half intro)


Verse

Chorus

Intro


Bridge:
| C#7 | C#7 | D | A |

| C#7 | C#7 | D | E |


½ Chorus (break on the first F#, A(bar) and B)

Chorus

Intro


- 15th /August /08
Just mail me at Maitinin@gmail.com with questions, comments and corrections!

Important: The song above is NOT stored on the Chordie server. The original song is hosted at www.guitaretab.com. Chordie works as a search engine and provides on-the-fly formatting. Chordie does not index songs against artists'/composers' will. To remove this song please click here.

Text color:
Chord color:
Chord grids: 
Font size:    
Page size: 

A C#7 E F#
variations - click chord images

Login - add to songbook

Transpose chords

Tuning

Rating click stars to rate

Layout
Accuracy

SHARE PAGE  




You need to log in to post comments