Guitar Tabs, Chords and Lyrics


Older Lover Undercover   Jason Mraz



Older Lover Under Cover
Drop D Tuning (DADGBE)
Capo on the 3rd Fret

/ indicates slide up, \ indicates slide down.

Part (1)
e--------------------|
B--------------------|
G--7---6---5---4-4---|
D--5---x---5---5-5---|
A--5---7---3---2/3---|
D--5---5---5---5-5---|

Part (2)
e---------------|
B--0h1-0h1------|
G--0---0--------|
D--0h2-0h2-(4)--|
A--3---3----5---|
D-----------5---|

Part (3)
e------------------|
B--------------3---|
G--5---4---5-------|
D--5---5---5---4---|
A--x---x---7---5---|


Important: The song above is NOT stored on the Chordie server. The original song is hosted at www.guitaretab.com. Chordie works as a search engine and provides on-the-fly formatting. Chordie does not index songs against artists'/composers' will. To remove this song please click here.

This song is displayed as text-only. Transposing and tuning is only available for chordpro-songs.

Login - add to songbook

Rating click stars to rate

Layout
Accuracy

SHARE PAGE  




You need to log in to post comments