Guitar Tabs, Chords and Lyrics


Ju Hua Tai   Jay Chou



-------------------------------------------------------------------------------
			     Ju Hua Tai - Jay Chou
-------------------------------------------------------------------------------
Tabbed by: Huy H.
Email: N/A

This is my very first tab guys so go easy on me. I couldnt find any tabs on this song so 
to make my own. I've only been playing the guitar for a month now so this song 
be hard to play at all. Once I get better I'll try to make the song better. For now enjoy and rate


Tuning: Standard

e|----------------5-3-1-1-----------------------------------------------------------------|
B|----------1-3-3---------3-1--3-1-1------------------------------------------------------|
G|----0-2-2--------------------------2-0--------------------------------------------------|
D|--3------------------------------------3-3-0-3------------------------------------------|
A|----------------------------------------------------------------------------------------|
E|----------------------------------------------------------------------------------------|

e|------------------5-3-1-1-3-1----------0-1----------------------------------------------|
B|------------1-3-3----------------1-1----------------------------------------------------|
G|--0---0-2-2--------------------------2-------0--2-0-------------------------------------|
D|----3--------------------------------------3--------3-----------------------------------|
A|----------------------------------------------------------------------------------------|
E|----------------------------------------------------------------------------------------|

e|----------------------------------------------------------------------------------------|
B|-------------1---------------1---------------1---3-1--3-1-1---1----------1--------------|
G|--2-2-0-2--2---2-0-2-----0-2---2--0-0---0--2---2-----------2---------0-2---2-0-0--------|
D|---------------------3-3--------------3--------------------------3-3-------------3-0-3--|
A|----------------------------------------------------------------------------------------|
E|----------------------------------------------------------------------------------------|


| /  slide up
| \  slide down
| h  hammer-on
| p  pull-off
| ~  vibrato
| +  harmonic
| x  Mute note


Important: The song above is NOT stored on the Chordie server. The original song is hosted at www.guitaretab.com. Chordie works as a search engine and provides on-the-fly formatting. Chordie does not index songs against artists/composers will. To remove this song please click here.

This song is displayed as text-only. Transposing and tuning is only available for chordpro-songs.

Login - add to songbook

Rating click stars to rate

Layout
Accuracy

SHARE PAGE  




You need to log in to post comments