Guitar Tabs, Chords and Lyrics


Kai Bu Liao Ku  Jay Chou

---------------------------------------------------------



---------------------------------------------------------

Tuning : standard


intro... :

e|--7----0---9---0---7--0---4---0---7---0--4-5----0---9--|
B|--5--------------------0-----------------------3-------|
G|--6----------------------------------------------------|
D|-------------------------------------------------------|
A|-------------------------------------------------------|
E|-------------------------------------------------------|
e|-0---9-10--7--0--7--0--4--0--5------|
B|------------------------------------|
D|------------------------------------|
G|------------------------------------|
A|------------------------------------|
E|------------------------------------|


VERSE:
[A]cai li kai mei duo jiu jiu kai shi[E] dan xin jin tian de ni guo de hao bu hao
[F#m]zheng ge hua mian shi ni xiang ni [E]xiang de shui bu zhao
[A]zui du du na ke ai de mo yang [E]hai you zai ni shen shang xiang xiang de wei dao
[F#m]wo de kuai le shi ni xiang [E]ni xiang de du hui xiao
[F#m]mei you ni zai [E]wo you duo nan a[A]o
( mei you ni zai wo you duo nan ao duo fan nao)
[F#m]mei you ni fan [E]wo you duo fan [A]nao
( mei you ni fan wo you duo fan nao duo nan ao)
[F#m]chuan guo yun ceng [E]wo shi zhao nu l[A]i xiang ni ben pao
ai cai s[D]ong dao ni que yi zai bie ren h[E]uai bao


CHORUS :

jiu shi k[A]ai bu liao kou r[E]ang ta zhi d[F#m]ao
wo yi ding h[A]ui he hu [E]zhao ni ye dou ni xi[F#m]ao
ni dui wo [D]you duo zhong yao wo hou hui mei [C#m]rang ni zhi dao
an jing de [D]ting ni sa jiao kan ni shui zhao [E]yi zhi dao lao
jiu shi k[A]ai bu liao kou [E]rang ta zhi d[F#m]ao
jiu shi na me j[A]ian dan ji ju wo ban bu d[F#m]ao
zheng ke xin [D]xuan zai ban kong wo zhi neng [C#m]gou yuan yuan kan zhao
zhe xie wo d[D]ou zuo de dao dan na ge ren y[E]i jing bu shi w[A]o

Important: The song above is NOT stored on the Chordie server. The original song is hosted at www.guitaretab.com. Chordie works as a search engine and provides on-the-fly formatting. Chordie does not index songs against artists'/composers' will. To remove this song please click here.

Text color:
Chord color:
Chord grids: 
Font size:    
Page size: 

A C#m D E F#m
variations - click chord images

Login - add to songbook

Transpose chords

Tuning

Rating click stars to rate

Layout
Accuracy

SHARE PAGE  




You need to log in to post comments