Chordie logo

Lang Man Shou Ji   Jay Chou



Intro

e-------------------------------------------------|
b—11h-13-10-6h--8-8--4--6--7--6---4---------------|
g-------------------------------------------------|
D-------------------------------------------------|
A-------------------------------------------------|
E-------------------------------------------------|

e-------------------------1-1-1-------------------|
b—11h-13-10-6h--8-8--4----------------------------|
g-------------------------2-2-2-------------------|
D-------------------------------------------------|
A-------------------------0-0-0-------------------|
E-------------------------------------------------|


Verse 1

e-------------1-----------------------------------|
b—--------1-3---1--------------1----------4-6----4|
g------3----------3---------3----3----------------|
D----3--------------------3-------------------6---|
A-1------------------------------------6----------|
E----------------------3-------------6------------|

e-------------------------------1-----------------|
b--------6---4-------------1-3----1------------1--|
g-----8----0------------3------------3------3-----|
D---8-----------------3-------------------3-------|
A-6----------------1------------------------------|
E---------------------------------------3---------|

e---1---------------------------------------------|
b—-3--1---------4---6---4------------12-----------|
g-------3-------------0-----------12-------12-----|
D------------------------------12-------12--------|
A-------------6-----------------------------------|
E-----------6---------------10--------------------|

e----------------------------5--3---------5----3--|
b—------------------------------------------------|
g----------14-------------7-------------7---------|
D-------12-------12-----8-------------8------0----|
A----12-------12----------------------------------|
E-10-----------------6-------------6--------------|

This is my first tab... but it's not complete... only for the first 1st minute, but it 


Important: The song above is NOT stored on the Chordie server. The original song is hosted at www.guitaretab.com. Chordie works as a search engine and provides on-the-fly formatting. Chordie does not index songs against artists/composers will. To remove this song please click here.

This song is displayed as text-only. Transposing and tuning is only available for chordpro-songs.

Login - add to songbook

Rating click stars to rate

Layout
Accuracy

SHARE PAGE  



You need to log in to post comments