Guitar Tabs, Chords and Lyrics


Crowded   Jeannie Ortega



-------------------------------------------------------------------------------
			     Crowded - Jeannie Ortega
-------------------------------------------------------------------------------
Tabbed by: rockstardudeee

Website:
http://hollywoodrecords.go.com/jeannieortega/

Tuning: Standard

Guitar 1
e|----6--3--6-----3-----3---------------------|
B|-------------------6--------6--3--6---------|
G|---------------------------------------5----|
D|--------------------------------------------|
A|--------------------------------------------|
E|--------------------------------------------|

e|----6--3--6-----3-----3---------------------|
B|-------------------6--------6--3--6----6----|
G|--------------------------------------------|
D|--------------------------------------------|
A|--------------------------------------------|
E|--------------------------------------------|

e|----6--3--6-----3-----3---------------------|
B|-------------------6--------6--3--6---------|
G|---------------------------------------5----|
D|--------------------------------------------|
A|--------------------------------------------|
E|--------------------------------------------|

e|----6--3--6-----3-----3---------------------|
B|-------------------6--------6--3--6---------|
G|---------------------------------------5----|
D|--------------------------------------------|
A|--------------------------------------------|
E|--------------------------------------------|

Guitar 2
e|------------|
B|------------|
G|-----5------|
D|-----5------|
A|-----3------|
E|------------|

e|------------|
B|------------|
G|-----5------|
D|-----5------|
A|-----3------|
E|------------|

e|------------|
B|------------|
G|------------|
D|-----3------|
A|-----3------|
E|-----1------|

e|------------|
B|------------|
G|------------|
D|-----6------|
A|-----6------|


Important: The song above is NOT stored on the Chordie server. The original song is hosted at www.guitaretab.com. Chordie works as a search engine and provides on-the-fly formatting. Chordie does not index songs against artists/composers will. To remove this song please click here.

This song is displayed as text-only. Transposing and tuning is only available for chordpro-songs.

Login - add to songbook

Rating click stars to rate

Layout
Accuracy

SHARE PAGE  




You need to log in to post comments