Guitar Tabs, Chords and Lyrics


Moma You Been On My Mnd  Jeff Buckley

e|----------0-----0-----------1------1--------------------1--------2--------|(3)


B|----------1-----1-----------0------0--------------------1--------2------5-|


G|----------0-----0-----------1------1--------------------2--------2------5-|

D|----------2-----2-----------2------2-----------(3)------3--------4--------|
A|------0---3--0--3--------0--3---0--3------------3-------3--------x--------|
E|1--3----------------1--3----------------1--3/5-------1-------2--------3---|
e|--------------------------------------------------------------------|
B|--------------------------------------------------------------------|
G|--------------------------------------------------------------------|
D|--5---7--10--7---10---12/14\12---12/14\12---10---7\5-----------5/7--|
A|--------------------------------------------------------------------|
E|--3---5--8---5---8----10/12\10---10/12\10---8----5\3-----------3/5--|
e|-----1------2-----------------------------------3--------------|
B|-----1------2---------------5----------7----7---3--------------|
G|-----4------2----4---4---5----5---------5---5---0--------------|
D|-----3------4----5---6---7------7--------7--7---0---0-2-3~~~~~-|
A|-----3------3----------------------7--5------------------------|
E|--1------2-------3---4---5----------------------3--------------|
[C]Perhaps it is the color of the sun cut [E]flat
And cov[Am]ering the cr[D7]ossroads I'm standing at
Or [C]maybe it´s the[E] weather o[Am]r something[F] like that
But [C]mama, you been[G] on my mi[C]nd
Rest of verses (done similarly)

I mean no trouble, please don't put me down, don’t get upset,
I am not pleading or saying that "I can't forget you."
I do not pace the floor bowed down and bent, but yet,
Mama, you been on my mind.

Even though my eyes are hazy and my thoughts they might be narrow,
Where you been don't bother me or bring me down in sorrow.
I don't even mind who you'll be waking with tomorrow,
But mama, you're just on my mind.

I am not askin' you to say words like "yes" or "no,"
Please understand me, I have no place I’m callin’ you to go.
I'm just whispering to myself so I can't pretend that I don't know,
But mama, you're just on my mind.

BREAK: just run through the chord progression normally

When you wake up in the mornin' and look inside your mirror,
You know I won't be next to you, you know I won't be near.
I'd just be curious to know if you can see yourself as clear
As someone who has had you on his mind.

Important: The song above is NOT stored on the Chordie server. The original song is hosted at www.guitaretab.com. Chordie works as a search engine and provides on-the-fly formatting. Chordie does not index songs against artists'/composers' will. To remove this song please click here.

Text color:
Chord color:
Chord grids: 
Font size:    
Page size: 

Am C D7 E F G
variations - click chord images

Login - add to songbook

Transpose chords

Tuning

Rating click stars to rate

Layout
Accuracy

SHARE PAGE  




You need to log in to post comments