Guitar Tabs, Chords and Lyrics


Wont You Try   Jefferson Airplane



Title: "Won't You Try/Saturday Afternoon"
Artist: Jefferson Airplane
Album: After Bathing at Baxter's (1967)
Composer: Paul Kantner
Instrument: 6-String Guitar 
Tabbed by: ANx93@aol.com

Part: Lead Guitar (Jorma Kaukonen)
Key:
p = Pull Off
~ = Ring Out
/  = Slide Down
\  = Slide Up
.  = Palm Mute

0:00 - 0:10
Rest

0:11 - 0:34
  |:11-:14| |:15-:18| |:19-:21| |:22-:25| |:26-:29| |:30-:34|
e||-------| |-------| |-------| |-------| |-------| |-------|
B||-------| |-------| |-------| |-------| |-------| |-------|
G||-------| |-------| |-------| |-------| |-------| |-------|
D||-------| |-------| |-------| |-------| |-------| |-------|
A|7-7p----| |7-7p---| |7-7p---| |7-7p---| |7-7p---| |7-7p---|
E|0-0~----| |0-0~---| |0-0~---| |0-0----| |0-0~---| |0-0~---|

0:35 - 0:48
Rest

0:48 - 0:52
  |  :48-:52   | |   :54-:56  | |           :57-1:08
e||------------| |------------| |-------------------------------------|
B||------------| |------------| |-------------------------------------|
G||------------| |------------| |-------------------------------------|
D||------12----| |------12-14~| |14-12-11-9~-7-6-4-2-4----------------|
A||12-14----14~| |12-14-------| |----------------------7(ring to 1:08)|
E||------------| |------------| |----------------------0("          ")|

1:10 -1:44
Rest

1:45 - 2:01 (wiggle strings)
e|------------12~-14~-16~-17-16-16~-14/12~-|
B|12~-14~-15~------------------------------|
G|-----------------------------------------|
D|-----------------------------------------|
A|-----------------------------------------|
E|-----------------------------------------|




2:02 - 2:22
e|--------------------------------------------------------------------|
B|--------------------------------------------------------------------|
G|--------------------------------------------------------------------|
D|12-14-12~-12-11-9-7~-7-6-7\9-9-11-12\16/12-11-9-7-6(wiggle and ring-|  
A|-----------------------------------------------out the 6 until 2:22)|
E|--------------------------------------------------------------------|

2:23 - 2:33
Rest

2:34 - 2:55 (wiggle the string when you let it ring)
  |2:34-2:37| |2:38-2:45| |2:46-2:55(slowly tremolo pick until 2:52)|
e||---------| |---------| |-----------------------------------------|
B||---------| |---------| |-----------------------------------------|
G||---------| |---------| |-----------------------------------------|
D||14~------| |14~------| |14~--------------------------------------|
A||---------| |---------| |-----------------------------------------|
E||---------| |---------| |-----------------------------------------|

2:56 - 3:04
    |2:56| |2:57-3:04|
e||----| |---------|
B||----| |---------|
G||----| |---------|
D||----| |---------|
A||7~--| |7~~------|
E||0~--| |0~~------|

3:05 - 3:10
Rest

3:11 - 3:13(Faintly)
e|-----------|
B|-----------|
G|-----------|
D|11-12-12-11|
A|-----------|
E|-----------|

3:13 - 3:50
Rest

3:51 - 4:06
e|-------------------------------------------------------------------|
B|-------------------------------------------------------------------|
G|-------------------------------------------------------------------|
D|9-11-12-14-11-12-------------------14(wiggle and ring out 14 until-|
A|-----------------12-14-15-14-12-14---------------------------4:06.)|
E|-------------------------------------------------------------------|


4:07 - 4:16
Rest

4:17 - 4:29 (Repeat and keep muted)
e|--------|
B|--------|
G|--------|
D|--------|
A|--------|
E|1212-12-|
  . .  .

4:30 - 4:41
  | 4:30 | | 4:34 | | 4:37 | | 4:41 |
e||------| |------| |------| |------|
B||------| |------| |------| |------|
G||------| |------| |------| |------|
D||11-12p| |12-14p| |11-12p| |12-14p|
A||------| |------| |------| |------|
E||------| |------| |------| |------|

4:42 - 4:48
Rest

4:49 - 5:00
 |     4:49-4:52      | |4:53-5:00
e|--------------------| |---------------------------------------------|
B|--------------------| |------------12~(wiggle & ring out until 5:00-|
G|--------------------| |------12-14----------------------------------|
D|12-14-14b(16)-12-11~| |12-14----------------------------------------|
A|--------------------| |---------------------------------------------|
E|--------------------| |---------------------------------------------|


Important: The song above is NOT stored on the Chordie server. The original song is hosted at www.guitaretab.com. Chordie works as a search engine and provides on-the-fly formatting. Chordie does not index songs against artists/composers will. To remove this song please click here.

This song is displayed as text-only. Transposing and tuning is only available for chordpro-songs.

Login - add to songbook

Rating click stars to rate

Layout
Accuracy

SHARE PAGE  




You need to log in to post comments