Chordie logo


Between   Jerry Cantrell



BETWEEN
by Jerry Cantrell
Album: Boggy Depot

Guitar I (E A D G B E)  - Clean Electric -
Guitar II (E A D G B E) - Distorted Electric-

-Guitar I- Guitar Intro (x8)

------------------------|
------------------------|
-----------------6------|
--------6---------------|
---4--------4-----------|
------------------------|


-Guitar I- Verse I & Verse II (x2)
-------------------|
-------------------|
---------------6---| (x12)
-------6-----------|
---4-------4-------|
-------------------|

---------------------------------------------------|
---------------------------------------------------|
-----------5-----------5-----------5---------------| (x1)
---------------6-----------6-----------6-------6---|
-------6-----------6-----------6-----------6-------|
---4-----------------------------------------------|

-------------------|
-------------------|
---------------6---| (x4)
-------6-----------|
---4-------4-------|
-------------------|

-Guitar II- Verse II
-----------------------|
-----------------------|
----------6------------|
----------6------------|      [Hold until fade out]
----------4------------|
-----------------------|



Important: The song above is NOT stored on the Chordie server. The original song is hosted at www.guitaretab.com. Chordie works as a search engine and provides on-the-fly formatting. Chordie does not index songs against artists/composers will. To remove this song please click here.

This song is displayed as text-only. Transposing and tuning is only available for chordpro-songs.

Login - add to songbook

Rating click stars to rate

Layout
Accuracy

SHARE PAGE  




You need to log in to post comments