""; ?> Ya No Quiero by Jesse Y Joy - guitar chords, guitar tabs and lyrics - chordie

Ya No Quiero

Jesse Y Joy

 GCEmD
|-3---3-3----|-3---5-5---|
|---3-----3--|---3-----3-|
|------------|-----------|
|------------|-----------|
|------------|-----------|
|------------|-----------|


 GCEmD
 Tantas bellas palabras       
 GCEmD
que me decías        
 GCEmD
 tonta y enamorada      
 GCEmD
ya me tenias           

 GCEmD
 Tus caricias vacías    
 GCEmD
me las creía        
 GCEmD
 de tus besos y abrazos     
 GCEmD
me derretía.          

 C
 Me engañaste y dejaste
 G
Lastimaste a mi pobre corazón

 BCF
YA NO QUIERO VER TÚ FOTO EN MI BURÓ 
 GBCF
 VETE QUE YA TE TENGO OLVIDADO EN UN CAJÓN 
 GBC
Y TODO ESTE TIEMPO TE HE MENTIDO
 Cm
PUES TUS BESOS NO SON LO MEJOR

 GEmD
 Me propuse olvidar     
 GCEmD
y madurar          
 GCEmD
 Volveré a empezar   
 GCEmD
 y lo voy a lograr     

 C
 Te dejé en el pasado
 G
Has quedado olvidado corazón

 EmACB
|----------7----------|----------7------------|-7-8-7--------------|
|----8---8---8----8---|----8---8---8----------|-------10-8-7-------|
|-/9---9-------9-9--9-|-/9---9-------9-9-9/11-|--------------9-7/9-|
|---------------------|-----------------------|--------------------|
|---------------------|-----------------------|--------------------|
|---------------------|-----------------------|--------------------|


Em A C B – B - B
|----------7-----------|-------8/10-|---------7---------11-11--11-11|
|----8---8---8----8---8|-8h10—-8/10-|---8---9---10-8--8-12-12--12-12|
|-/9---9-------9-9--9--|------------|-9---8-------------------------|
|----------------------|------------|-------------------------------|
|----------------------|------------|-------------------------------|
|----------------------|------------|-------------------------------|


CORO


A B C Cm D Em F G
variations - click chord images
Transpose chords:
Tuning:
Cool service:
View: Size:
A  A  A
Rating:
Layout:
  • Currently 2.3/5 Stars.
  • 1
  • 2
  • 3
  • 4
  • 5
 
Accuracy:
  • Currently 3.3/5 Stars.
  • 1
  • 2
  • 3
  • 4
  • 5
 
click stars to rate
Chordie recommends:
Learn how to play guitar at JamPlay.com
Songbook:
Login to add this song to your songbook
Support the artist
Preview/buy this song
MSN Music
Why this non-profit ad?

 
login to add comments/video/corrections