Guitar Tabs, Chords and Lyrics


Gladiator   Jesus Lizard



----------------------------------------------------------------------------
			     Gladiator - The Jesus Lizard
----------------------------------------------------------------------------
Tabbed by:Kenvyn123
Email:kenvyn4:hotmail.com

Tuning:Standard

 bass and drums start the guitar slowly faids in. listen to get the rhythm, its 
same through out the song.

Verse:
e|--------|       |---------|------|---------|------|     |------------------|
B|--------|       |---------|------|---------|------|     |------------------|
G|--------|       |-11-11-11|-7-7-7|-11-11-11|-7-7-7|     |-11-11-11-11------|
D|--4-4-4-|X lots |-x--x--x-|-x-x-x|-x--x--x-|-x-x-x| x 6 |-x--x--x--x--|x15-|
A|--4-4-4-|       |-9--9--9-|-7-7-7|-9--9--9-|-5-5-5|     |-9--9--9--9-------|
E|--2-2-2-|       |---------|------|---------|------|     |------------------|
    pm


repete verse.


A warm sun... part:
e|------|-------|-------|----------|
B|------|-------|-------|----------|
G|------|-------|-------|----------|
D|-4-4-4|-4-4-4-|-4-4-4-|----------| x4
A|-4-4-4|-4-4-4-|-4-4-4-|------5-7-|
E|-2-2-2|-2-2-2-|-2-2-2-|-2-/5-----|


1st break down:
e|----------------------|----------------------|----------------------|
B|----------------------|----------------------|----------------------|
G|--7---6---5---4--3-3-3|--9---8---7---6--5-5-5|----------------------|
D|---7---6---5---4-3-3-3|---9---8---7---6-5-5-5|--9---8---7---6--5-5-5|
A|-5---4---3---2---1-1-1|-7---6---5---4---3-3-3|---9---8---7---6-5-5-5|
E|----------------------|----------------------|-7---6---5---4---3-3-3|

repete verse and
A warm sun...Part.


2nd Break down:
e|----------------------|----------------------|--------------------------|
B|----------------------|----------------------|--------------------------|
G|--9---8---7---6--5-5-5|----------------------|--11----10----9---8--3-3-3|
D|---9---8---7---6-5-5-5|--9---8---7---6--5-5-5|----11----10---9---8-3-3-3|
A|-7---6---5---4---3-3-3|---9---8---7---6-5-5-5|-9-----8-----7---6---1-1-1|
E|----------------------|-7---6---5---4---3-3-3|--------------------------|

e|----------------------|----------------------|
B|----------------------|----------------------|
G|--9---8---7---6--5-5-5|----------------------|
D|---9---8---7---6-5-5-5|--9---8---7---6--5-5-5|
A|7---6---5---4----3-3-3|---9---8---7---6-5-5-5|
E|----------------------|-7---6---5---4---3-3-3|

Outro:
e|------|-------|-------|-------|
B|------|-------|-------|-------|
G|------|-------|-------|-13-14-|
D|-4-4-4|-4-4-4-|-4-4-4-|-x--x--| x3
A|-4-4-4|-4-4-4-|-4-4-4-|-11-12-|
E|-2-2-2|-2-2-2-|-2-2-2-|-------|

e|------|-------|-------|----------|
B|------|-------|-------|----------|
G|------|-------|-------|----------|
D|-4-4-4|-4-4-4-|-4-4-4-|----------|
A|-4-4-4|-4-4-4-|-4-4-4-|-

Important: The song above is NOT stored on the Chordie server. The original song is hosted at www.guitaretab.com. Chordie works as a search engine and provides on-the-fly formatting. Chordie does not index songs against artists/composers will. To remove this song please click here.

This song is displayed as text-only. Transposing and tuning is only available for chordpro-songs.

Login - add to songbook

Rating click stars to rate

Layout
Accuracy

SHARE PAGE  




You need to log in to post comments