Hymn 43

Jethro Tull



 DCAG
 Oh father high in heaven  
 DCG
 smile down upon your son.  Yeah!
 DCGBbAG
 Whose busy with his money games Oh! his women and his gun.
Oh Jesus save me!
            E|-----------------
            B|-----------------
            G|----------------- Play 4x
            D|----------3-5----
            A|-5-5-530---------
            E|-----------------

 DCAG
 And the unsung Western hero 
 DCG
 killed an Indian or three.  Yeah!
 DCGBbAG
 And then he made his name in Hollywood    to set the white man free.
Oh Jesus save me!
            E|-----------------
            B|-----------------
            G|----------------- Play 4x
            D|----------3-5----
            A|-5-5-530---------
            E|-----------------

 DCGFC
If Jesus saves -- well, He'd better save Himself 
 DCGFC
from the gory glory seekers who use His name in death. 
 AGD
      Oooh! Oooh! Oooh! Oooh! Oh Jesus save me!
Solo: D C A G
 DCGDCGBbAGDCGFC
                                   If Jesus saves -- well, He'd better save Himself 
 DCGFC
from the gory glory seekers who use His name in death. 
 AG
      Oooh! Oooh! Oooh! Oooh!
Oh Jesus save me!
            E|-----------------
            B|-----------------
            G|----------------- Play 2x
            D|----------3-5----
            A|-5-5-530---------
            E|-----------------

 DCAG
 saw him in the city 
 DCG
 and on the mountains of the moon --
 DCGBbAG
 His cross was rather bloody --     Oh! He could hardly roll His stone.
Oh Jesus save me!
            E|-----------------
            B|-----------------
            G|----------------- Play 4x and end.
            D|----------3-5----
            A|-5-5-530---------
            E|-----------------


A Bb C D F G
variations - click chord images
Transpose chords:
Tuning:
Cool service:
View: Size:
A  A  A
Rating:
Layout:
  • Currently 2.8/5 Stars.
  • 1
  • 2
  • 3
  • 4
  • 5
 
Accuracy:
  • Currently 2.7/5 Stars.
  • 1
  • 2
  • 3
  • 4
  • 5
 
click stars to rate
Chordie recommends:
Learn how to play guitar at JamPlay.com
Songbook:
Login to add this song to your songbook
Support the artist
Preview/buy this song
MSN Music
Why this non-profit ad?

 
login to add comments/video/corrections