If My Heart Were Made Of Gold

Jewel

 DDsus2G
e|-------2-----------3------------3-----------3-----|
B|-----------3-----------3------------3-----------3-|
G|---2-----2-----2-----2----------------------------|(2 times)
D|-0---0-------0---0----------0-----0-----0-----0---|
A|--------------------------------------------------|
E|--------------------------3---3-------3---3-------|


Verses
 DDsus2G
e|-------2-----------3------------3-----------3-----|
B|-----------3-----------3------------3-----------3-|
G|---2-----2-----2-----2----------------------------|(4 times)
D|-0---0-------0---0----------0-----0-----0-----0---|
A|--------------------------------------------------|
E|--------------------------3---3-------3---3-------|

The light bright up the Christmas tree
Oh goodie, it's Christmas Eve

Verse 1
 DGD
The lights bright up the Christmas tree     
 GD
Oh goodie, it's Christmas Eve        
 GD
Got my baby, got his family and friends      
 G
Draw another year to an end

*Chorus*
Am (A|0-2-3) C G
Ribbons gold and blue
 DAm
Do not deliver you   
Am (A|0-2-3) C G
Presents pretty and bright
 D
Don't make this empty space feel alright
C C/B Am (A|0-2h0-3)
Ohhhhhh, if my heart were made of gold
 CC/BAm
          If my heart were made of gold
 GDC
Then maybe you'd find something to love about me

*Verse 2* Same as first verse
The weather is unseasonably warm
Everybody's wishing for the Texas snow storm
Don't peak in stockings don't let my mind drift
There is a missing gift

*Chorus*
Presents, gold and blue
Do not deliver you
Presents, pretty and bright
Don't make this empty space feel alright
Ohh, if my heart were made of gold
If my heart were made of gold
Then maybe you'd find something to love about me

*Ending*
 EmCG
 You only wanted to see the gold star
 D
On top of the tree
 EmC
Oh I wished I may, I wished my whole life
 G
To shine as bright
 D
 Bright enough for you to see
 EmAmEm
The gooooooooold, oh the gold
Am (A|0-2h0-3)
Soft shining gold
C C/B Am (A|0-2h0-3)
I was not the kind that you can hold
 CC/BAm
     Tell me why could not you see
 DG
The treasure inside of me

You'll have to listen to the song to get the rhythm and timing. (A|0-2-3) and
refers to string A and the frets you play on it. Keep it in rhythm and work it in smoothly.
keep the same plucking pattern and rhythm for the who song as the intro and verses.

Any questions, feel free to email me.


Am C C/B D Dsus2 Em G
variations - click chord images
Transpose chords:
Tuning:
Cool service:
View: Size:
A  A  A
Rating:
Layout:
  • Currently 3/5 Stars.
  • 1
  • 2
  • 3
  • 4
  • 5
 
Accuracy:
  • Currently 3/5 Stars.
  • 1
  • 2
  • 3
  • 4
  • 5
 
click stars to rate
Chordie recommends:
Learn how to play guitar at JamPlay.com
Songbook:
Login to add this song to your songbook
Support the artist
Preview/buy this song
MSN Music
Why this non-profit ad?

 
login to add comments/video/corrections