Guitar Tabs, Chords and Lyrics


A Long Time Ago  Jim Croce



Intro: G - D - Em - C - G/B - Am - C - G

[G]Seems like such a [D]long time a[Em]go
[C]I was [G/B]walking on [Am]lone[C]ly [G]road
[G]Getting tired of [D]dreamin' a[Em]lone
[C]Like all the [G/B]lonely people [Am]I  [C]had [G]known
Seems like such a long time ago
There was no-one who would share my song
I was just a boy far from home
And I became a man when you came along

[C]We [C/B]spent the [Am]whole [Am/G]night tal[Em]king
You [D]said you'd [C]like to [G]see the [D]sun [G]rise
[C]But [C/B]in the [Am]gold [Am/G]of mor[Em]ning
There was nothing [D]that I [C]had not [G]seen in [D]your [G]eyes
[Bmmm]                                     
[C]I was so af[G/B]raid to touch you
[A]Thought you were too [G]young to know
[C]So I just watched you [C/B]sleeping   [Am]   [Em]   [D]
[C]Then you woke and [G/B]said to me
The [Am]night is cold it [G]frightens me
[C]I could sleep so [C/B]easy next to [Am]you[Em]   [D]

Wasn't very long ago
You said that you would like to share my road
Then you started singing my song

You said so many nights are waiting
Let's not spent a moment waisting time
'Cause we have very far to go
I will go if you will take me
I have never had a lover
I am young but I am so alone

We spent the whole night talking
(...)
But in the gold of morning
(...)
[Em]Hmm[D]m,  [D7]mmm [G]mmm


Intro & verse (Seems like such a long time ago...)

  [G]      [-]      [D]      [-]       [Em]      [-]      [-]      [-]                                          
e|3-----3-----2-----------|0--------------3--2--3--|
b|0-----------3-----3-----|0-----0--------0--0--0--|
g|---0-----0-----2-----2--|---0-----0--------------|
d|------------0-----------|------------------------|
a|------------------------|------------------------|
E|3-----------------------|0-----------0-----------|
  C     -     G/B   -      -     -     -     -
e|0-----0-----------0-----|5--3-----1--------------|
b|1-----------3-----------|5--1-----0--------------|
g|---0-----0-----0-----0--|---------------------0--|
d|------------------------|---------------0--0h2---|
a|3-----------2-----------|0--3--------------------|
E|------------------------|---------3--------------|


__,---
,,, / \ 'She makes the sign of a teaspoon
>>> yoast@xs4all.nl | He makes the sign of a wave'
``` \__ / --Paul Simon
`---

Important: The song above is NOT stored on the Chordie server. The original song is hosted at www.guitaretab.com. Chordie works as a search engine and provides on-the-fly formatting. Chordie does not index songs against artists'/composers' will. To remove this song please click here.

Text color:
Chord color:
Chord grids: 
Font size:    
Page size: 

A Am C C/B D D7 Em G G/B
variations - click chord images

Login - add to songbook

Transpose chords

Tuning

Rating click stars to rate

Layout
Accuracy

SHARE PAGE  




You need to log in to post comments