Guitar Tabs, Chords and Lyrics


Radio Of Jingle   Jimi Hendrix



Radio Of Jingle
Jimi Hendrix

     G A

eb|--3--/---5---X-X-X-X--|
Bb|--3--/---5---X-X-X-X--|  Verse
Gb|--4--/---5---X-X-X-X--|
Db|--5--/---7---X-X-X-X--|
Ab|--5--/---7---X-X-X-X--|     5x
Eb|--3--/---5---X-X-X-X--|

                            G     A

eb|-------------------------3--/--5--|
Bb|-5-----5-------5---------3--/--5--|  Chorus
Gb|-7(9)--7(9)----7(9)------4--/--6--|
Db|-------------------------5--/--7--|
Ab|-------------------------5--/--7--|    5x
Eb|-------------------------3--/--5--|


eb|---------------|  "Thats all folks!" riff
Bb|---------------|
Gb|--2------------|
Db|----4-3-2------|
Ab|-----------5-7-|
Eb|---------------|


Lyrics
(Spoken Intro)


1,2,3,4...(Verse)

Radio One
Your the only one
For me...

(Chorus)

Just ...
Make ...
Radio one
You stole ..
But I love ...

(Chorus)

(Thats all riff)
(Spoken)
You can fade out before that part.



Legend
Ab|---------------|   Bend on the 7th fret till it sounds like the 9th
Eb|--7(9)---------|   Other words, bend a full step.


Ab|---X--X--------|   Strum muted strings.
Eb|---X--X--------|

Ab|--5/7-----------|   Slide 3rd fret power chord to 5th fret power chord


Important: The song above is NOT stored on the Chordie server. The original song is hosted at www.guitaretab.com. Chordie works as a search engine and provides on-the-fly formatting. Chordie does not index songs against artists'/composers' will. To remove this song please click here.

This song is displayed as text-only. Transposing and tuning is only available for chordpro-songs.

Login - add to songbook

Rating click stars to rate

Layout
Accuracy

SHARE PAGE  




You need to log in to post comments