Chordie logo
content loaded from cache

Brown Eyed Girl  Jimmy Buffett

----------------------------------------------------------------------------



----------------------------------------------------------------------------







e|--7--8---10--8---7--12--13--15--13--12--7--8---10--8---------------| 


B|--8--10--12--10--8--13--15--17--15--13--8--10--12--10--10-------7--| 


G|----------------------------------------------------------7--9-----| 


D|-------------------------------------------------------------------|


A|-------------------------------------------------------------------| 


E|-------------------------------------------------------------------| 



[G]Hey where did we [C]go
[G]Days when the rai[D7]n came
[G]Down in the hol[C]low
[G]Playin a new ga[D7]me


[G]Laughin and a run[C]nin hey hey
[G]Skippin and a ju[D7]mpin
[G]In the misty morn[C]in fog
[G]Ah with our hearts a[D7] thumpin
With y[C]ou,[D] my brown eye[G]d girl  [Em]
[C]You my,[D] brown eyed gir[G]l

Now what ever happened
Tuesday is oh so slow
Goin’ down the old mine with a
Transistor radio

Standin’ in a sunlit lane
Hidin’ ’hind a rainbow’s wall
Slippin’ and a slidin’ yeah
All along the waterfall
It was you my brown eyed girl
You my brown eyed girl



CHORUS

[D7]Do you remember when, we used to say
[G]Sha la la l[C]a la la la l[G]a la la la te [D7]dah
[G]Sha la la l[C]a la la la l[G]a la la la te [D7]dah
[G]la te dah


VERSE (same chords)

So hard to find my way
Now that I’m on my own
Thought about it just the other day
My, where’d the times all gone

Can’t remember back then lord
Sometimes I’m overcome thinkin’ ’bout
Makin’ love in the green grass
Uh behind the stadium
With you my brown eyed girl
You my brown eyed girl

CHORUS

OUTRO

****************************************************************************

Important: The song above is NOT stored on the Chordie server. The original song is hosted at www.guitaretab.com. Chordie works as a search engine and provides on-the-fly formatting. Chordie does not index songs against artists/composers will. To remove this song please click here.

C D D7 Em G
variations - click chord images

Transpose chords

Tuning

Rating click stars to rate

Layout
Accuracy

SHARE PAGE  

You need to log in to post comments

Hal Toupee (report)

Try this for the intro...wayyyyyy easier to play on acoustic...

e|----------------0--1--3--1--0---------------------------|
B|-0--1--3--1--0--1--3--5--3--1--0--1--3-1--0-----------2-|
G|-0--2--4--2--0-----------------0--2--4-2--0--2------0---|
D|---------------------------------------------0----4-----|
A|--------------------------------------------------------|
E|--------------------------------------------------------|
[play 2x]

Hopefully this will fit properly in the comment field! [if not, copy/paste it into notepad to make sense of it all... ;)

Hal

buck5555 (report)

yes originally done by morrison, but buffett also does a cover of this song, it's on one of his live albums

Pigdog (report)

Jimmy Buffet did this song? Van Morrison?