Chordie logo


World Is Static   Jimmy Eat World



WORLD STATIC - Jimmy Eat World
Tabbed by	Luc-E
lgjskywalker82@home.com

(D A D G B E) tuning
  
Intro: 
Guitar 1 
----------------------------------------------------------------------------- 
--------11-9---------------11-9---------------11-9---------------11-9-------- 
----8-8-----------8----8-8-----------8----8-8-----------8----8-8-----------8- 
-11-----------11b---11-----------11b---11-----------11b---11-----------11b--- 
----------------------------------------------------------------------------- 
----------------------------------------------------------------------------- 

Guitar 2 
----------------------------------------------------------------- 
----------------------------------------------------------------- 
-4-4-4-4-4-4-4-4-6-6-6-6-6-6-13-13-12---------------------------- 
-x-x-x-x-x-x-x-x-x-x-x-x-x-x-x--x--x----------------------------- 
-2-2-2-2-2-2-2-2-4-4-4-4-4-4-11-11-10---------------------------- 
----------------------------------------------------------------- 

-------------------------------------------- 
-------------------------------------------- 
-8--8-8--8-10-8--8-6---8--8-8--8-13--8--8-6- 
-x--x-x--x-x--x--x-x---x--x-x--x-x---x--x-x- 
-6--6-6--6-8--6--6-4---6--6-6--6-11--6--6-4- 
-------------------------------------------- 

Verse: 
----------------------------------- 
----------------------------------- 
-8------6-8------6-8------6-8------ 
-8------6-8------6-8------6-8------ 
-6------4-6------4-6------4-6------ 
----------------------------------- 

-------------------------------------------- 
-------------------------------------------- 
-8--8-8--8-10-8--8-6---8--8-8--8-13--8--8-6- 
-x--x-x--x-x--x--x-x---x--x-x--x-x---x--x-x- 
-6--6-6--6-8--6--6-4---6--6-6--6-11--6--6-4- 
-------------------------------------------- 
  
Chorus: 
----------------------------------------- 
----------------------------------------- 
-10-10-10-10-10-10-10-10-8-8-8-8-8-8-8-8- 
-x--x--x--x--x--x--x--x--x-x-x-x-x-x-x-x- 
-8--8--8--8--8--8--8--8--6-6-6-6-6-6-6-6- 
----------------------------------------- 

Bridge: 
----------------------------------------------------------------- 
----------------------------------------------------------------- 
-5-5-5-5-6-6-6-6---------8-8-8-8-5-5-5-5-6-6-6-6---------8-8-8-8- 
-x-x-x-x-x-x-x-x-6-6-6-6-8-8-8-8-x-x-x-x-x-x-x-x-6-6-6-6-8-8-8-8- 
-3-3-3-3-4-4-4-4-6-6-6-6-6-6-6-6-3-3-3-3-4-4-4-4-6-6-6-6-6-6-6-6- 
-----------------6-6-6-6-------------------------6-6-6-6--------- 

Outro:
-------------- 
-------------- 
-5--5-5-5-6--- 
-x--x-x-x-6--- 
-3--3-3-3-4--- 


Important: The song above is NOT stored on the Chordie server. The original song is hosted at www.guitaretab.com. Chordie works as a search engine and provides on-the-fly formatting. Chordie does not index songs against artists/composers will. To remove this song please click here.

This song is displayed as text-only. Transposing and tuning is only available for chordpro-songs.

Login - add to songbook

Rating click stars to rate

Layout
Accuracy

SHARE PAGE  




You need to log in to post comments