Chordie logo

Safe In These Arms  Jimmy Somerville


























E:-------------------/-----------------------------------/


B:--8h9h8----8-------/--8h9h8-----8~~----8---------------/


G:--------10---10h7--/---------9-------9---9h7----7------/(twice)


D:-------------------/-------------------------10--------/


A:-------------------/-----------------------------------/


E:-------------------/-----------------------------------/


Here in these [Bb]arms [Gm]
Our [A]history b[Dm]egan
Before there was[Bb] you [Gm]
There was thi[A]rst in my [Dm]heart
Look at my [Bb]lips, you will [Gm]see
I have dr[A]unk from the[Dm] river
That f[Bb]lows to the[Gm] sea
Of our [A]love[Dm]

CHORUS:
Bb (Gm) * *
Safe in these arms, *
A Dm *>>>>> three times
That's where I want to be *
* *
Safe from the [Bb]harm, in these [Gm]arms
That's where [A]I want to[Dm] be


If I may [Bb]die [Gm]
Let it b[A]e here with[Dm] you
For here with[Bb] you[Gm]
I shall sure[A]ly be s[Dm]afe
Safe from the [Bb]hate, from the l[Gm]ies
From the v[A]ultures of Ch[Dm]rist
I need no [Bb]Gods
I have no f[Gm]ears, I have [A]you [Dm]

---Chorus Again..(Bb/Gm/A/Dm)----


Here comes Solo then....

e |-----------------/----------------------/-----------------------|
B |-----------------/--------6---6-8-------/--8h10~~---------------|
G |------5---5-7----/----5p7---7-----------/---------10p12p10~-----|
D |--5p7---7--------/----------------------/-------------------12--|
A |-----------------/----------------------/-----------------------|
E |-----------------/----------------------/-----------------------|
e |-----------------/----------------------/---8h10~~--------------|
B |-----------------/---6p8p6--8h10~~h8----/-----------------------|
G |------5---5-7----/------------------10--/-----------------------|
D |--5p7---7--------/----------------------/-----------------------|
A |-----------------/----------------------/-----------------------|
E |-----------------/----------------------/-----------------------|
e |-----------------/----------------------/-----------------------|
B |-----------------/--------6---6-8-------/--8h10~~---------------|
G |------5---5-7----/----5p7---7-----------/---------10p12p10------|
D |--5p7---7--------/----------------------/-------------------12--|
A |-----------------/----------------------/-----------------------|
E |-----------------/----------------------/-----------------------|
e |--8h10~~~--------/-----8h10--10--10--10--10--10h8---------------|
B |-----------------/-----8h10 -10--10--10--10--10h8---------------|
G |-----------------/--------------------------------10~~----------|
D |-----------------/----------------------------------------------|
A |-----------------/----------------------------------------------|
E |-----------------/----------------------------------------------|



*Chorus Again after the solo...(Bb/Gm/A/Dm)

then the Part B..

Part B:
Never let[Bb] me, never le[Gm]t me
A Dm (twice)
Say you'll never let me go


Say you'll neve[Bb]r let m[Gm]e
A Dm (twice)
Say you'll never let me go

Take me in[Bb] your a[Gm]rms
Take me in[A] your a[Dm]rms
Take me in[Bb] your a[Gm]rms
And say you'll n[A]ever let me[Dm] go

Take me in[Bb] your arms and[Gm] hold me
Take me in[A] your arms an[Dm]d hold me
Take me in[Bb] your arms an[Gm]d hold me
Say you ll [A]never let me [Dm]go....
  (Never ne[A]ver let me g[D]o)

*************************************************************************
Email for questions,corrections and affections :) evett@mynet.com Icq:105196100

Important: The song above is NOT stored on the Chordie server. The original song is hosted at www.guitaretab.com. Chordie works as a search engine and provides on-the-fly formatting. Chordie does not index songs against artists/composers will. To remove this song please click here.

A Bb D Dm Gm
variations - click chord images

Login - add to songbook

Transpose chords

Tuning

Rating click stars to rate

Layout
Accuracy

SHARE PAGE  

You need to log in to post comments