"yes"; ?> If Women Ruled The World by Joan Armatrading - guitar chords, guitar tabs and lyrics - chordie

If Women Ruled The World

Joan Armatrading

 Fsus4F
E:---------------|--------------------|
B:---------------|--------------------|
G:---------------|--------------------|
D:--------3------|---------3----------|
A:3---5----------|-3------------------|
E:---------------|-----5--------------|


 Fsus4F
E:---------------|--------------------|
B:---------------|--------------------|
G:---------------|--------------------|
D:--------3------|---------3----------|
A:3---5-------5--|-3------------------|
E:---------------|-----5--------------|


 Fsus4F
E:---------------|--------------------|
B:---------------|--------------------|
G:---------------|---------------3p2h3|
D:--------3------|---------3----------|
A:3---5----------|-3---5--------------|
E:---------------|--------------------|


 C
E:---------------|--------------------|
B:---------------|--------------------|
G:/5------3p2h3/5|/8------------------|
D:---------------|--------------------|
A:---------------|--------------------|
E:---------------|--------------------|


 Fsus4F
E:---------------|--------------------|
B:---------------|--------------------|
G:---------------|--------------------|
D:--------3------|---------3----------|
A:3---5----------|-3------------------|
E:---------------|-----5--------------|


 Fsus4F
E:---------------|--------------------|
B:---------------|--------------------|
G:---------------|--------------------|
D:--------3------|---------3----------|
A:3---5-------5--|-3------------------|
E:---------------|-----5--------------|


 Fsus4F
E:---------------|--------------------|
B:---------------|--------------------|
G:---------------|---------------/2---|
D:--------3------|---------3----------|
A:3---5----------|-3---5--------------|
E:---------------|--------------------|


 C
E:---------------|--------------------|
B:---------------|--------------------|
G:--2------------|--------------------|
D:-----/5-----/8-|--8--7--------------|
A:---------------|--------------------|
E:---------------|--------------------|


 Fsus4F
Loving your sweet ways   
 Fsus4F
Loving the funny things you say
 Fsus4F
Loving the silence      
 C
Wrapped in my man's arms at the end of the day

 Fsus4F
Loving the way you      
 Fsus4
Make me feel
 F
That women rule the world
 Fsus4F
If women ruled the world  
 C
It would be a good thing

 Fsus4F
 No more war no more hate
 Fsus4F
 Women can fight but talking's great
 Fsus4F
 Behind your back to your face
 C
They'd rather talk than murder

 Fsus4F
Not all men kill babies  
 Fsus4
But a woman would rather
 F
Kill herself
 Fsus4F
Than see a child suffer     
 C
Women are carers, they were born that way

 Fsus4F
Like mother nature feeds the world
 Fsus4F
woman will think of her child first
 Fsus4F
 No more sons dying young
 C
 Women bore sons for living

 Fsus4F
I love how you love me   
 Fsus4
Make me feel that
 F
Women rule the world
 Fsus4F
If women ruled the world  
 C
It would be a good thing

 Fsus4F
If women ruled the world  
 Fsus4F
If women ruled the world  
 Fsus4F
If women ruled the world  
 C
It would be a good thing

Everything else is solo work by Joan, and I can't figure
it out. I hope this helps and please send corrections to
thomh@aimnet.com

Cheers,

Thom

Tablature explanation:

/ = slide up
\ = slide down
p = pull off
h = hammer-on


C F Fsus4
variations - click chord images
Transpose chords:
Tuning:
Cool service:
View: Size:
A  A  A
Rating:
Layout:
  • Currently 2.7/5 Stars.
  • 1
  • 2
  • 3
  • 4
  • 5
 
Accuracy:
  • Currently 2.9/5 Stars.
  • 1
  • 2
  • 3
  • 4
  • 5
 
click stars to rate
Chordie recommends:
Learn how to play guitar at JamPlay.com
Songbook:
Login to add this song to your songbook
Support the artist
Preview/buy this song
MSN Music
Why this non-profit ad?

 
login to add comments/video/corrections