Guitar Tabs, Chords and Lyrics


Quien Me Ha Robado El Mes De Abril  Sabina Joaquin

-=-=-=-=-=-=-=-=-=-=-=-=-=-=-=-=-=-=-=



=-=-=-=-=-=-=-=-=-=-=-=-=-=-=-=-=-=-=

E|-|--3/5-3-----------------|--3/5-3-----------------|-|
B|-|--3/5-3-----------------|--3/5-3-----------------|-|
G|-|---------3/5-3-------5--|---------3/5-3-------5--|-|
D|-|---------2/4-2---5-7----|---------2/4-2---5-7----|-|
A|-|------------------------|------------------------|-|
e|-|------------------------|------------------------|-|
[G]En la posada del fracaso
Donde n[F]o hay consuelo ni ascensor
[C]El desamparo y la humedad
comparten co[G]lchón
[Em]Y cuando por la calle pasa
la v[F]ida como un hu[C]racán
[Bbm]El hombre del traje gris [A]
saca un sucio calendario [C]del bolsillo
y grita

Estribillo:

[G]¿Quién me h[D]a robado el mes[C] de Abril?
[G]¿Cómo p[D]udo suce[C]derme a mi?
[G]¿Quién me ha[D] robado el mes d[C]e Abril?
Lo gua[Bm]rdaba en el ca[Am]jón
[C]donde guardo el c[D]orazón.

Estrofa:

La chica debut casi todas las asignaturas suspendio
del curso que preñada aquel chaval la dejo
Cuando en la pizarra pasa lista el profe de latin
lagrimas de desamor ruedan por las paginas de un block y dice

Estribillo:

¿Quien me ha robado el mes de abril?
¿Como pudo sucederme a mi?
¿Pero quien me ha robado el mes de abril?
Lo guardaba en el cajon
Donde guardo el corazon

Solo:

Esta dentro de la escala pentatonica de G mayor.

E|-|------------------------------------------------------|-|
B|-|------------------------15-15--13/12-13---15--13--12--|-|
G|-|-----12-----14b--12-14--------------------------------|-|
D|-|--12----12--------------------------------------------|-|
A|-|------------------------------------------------------|-|
e|-|------------------------------------------------------|-|
E|-|---------------------------------------------------|-|
B|-|----------------------------13--13-12/13-12/15-15--|-|
G|-|-----12------14b--12--------12---------------------|-|
D|-|--12----12------------14---------------------------|-|
A|-|---------------------------------------------------|-|
e|-|---------------------------------------------------|-|


¿Quien me ha robado el mes de abril?
Lo guardaba en el cajon
Donde guardo el corazon

El marido de mi madre
en el ultimo tren se largo
con una peluquera de 20 años menos
Y cuando exhiben esas risas
Instamatic en Paris
Derrotado en un sillon
Se marchita viendo Falcon Crest
Mi vieja y piensa:

¿Quien me ha robado el mes de abril?
¿Como pudo sucederme a mi?
¿Pero quien me ha robado el mes de abril?
Lo guardaba en el cajon
Donde guardo el corazon

Important: The song above is NOT stored on the Chordie server. The original song is hosted at www.guitaretab.com. Chordie works as a search engine and provides on-the-fly formatting. Chordie does not index songs against artists'/composers' will. To remove this song please click here.

Text color:
Chord color:
Chord grids: 
Font size:    
Page size: 

A Am Bbm Bm C D Em F G
variations - click chord images

Login - add to songbook

Transpose chords

Tuning

Rating click stars to rate

Layout
Accuracy

SHARE PAGE  




You need to log in to post comments