Chordie logo

Entombment For A Machine   Job For A Cowboy



k i dont know the whol song but i thought id tab out what i know because its been 
me that theres not been any tabs for such a great song....

This song is in drop A# tuning ( A# F A# D# G C )

dont know the first part... ill update that later

then cool part with cool bass thingy

C------------------------------------------------------------------|
G------------------------------------------------------------------|
D#-----------------------------------------------------------------|
A#-----------------------------------------------------------------|
F---4----4321----4----4321--444-4*---------------------------------|
A#--4----4321----4----4321--444------------------------------------|
Pm       ....         ....  ... PH

part with the shriek...

C------------------------------------------------------------------|
G------------------------------------------------------------------|
D#-----------------------------------------------------------------|
A#----------------------------------------------------AHHHHHHHHHHH-|
F------------------------------------------------------------------|
A#-4---1---3---1---4---1---3---1---4444111133331111----------------|

Verse 1

C-------------------------------------------------------------------|
G-------------------------------------------------------------------|
D#------------------------------------------------------------------|
A#------------------------------------------------------------------|
F-------------------------------------------------------------------|
A#-4444444411111111333333330000000044444444111111113333333300000000-

Back to cool part

C------------------------------------------------------------------|
G------------------------------------------------------------------|
D#-----------------------------------------------------------------|
A#-----------------------------------------------------------------|
F---4----4321----4----4321--444-4*---------------------------------|
A#--4----4321----4----4321--444------------------------------------|
Pm       ....         ....  ... PH

after one guitar plays this twice the second guitar plays the verse part over it

Next part

C------------------------------------------------------------------|
G------------------------------------------------------------------|
D#-----------------------------------------------------------------|
A#-----------------------------------------------------------------|
F---0-3-2-1-0----0-3-2-1-000-000-----------------------------------|
A#--0-3-2-1-0----0-3-2-1-000-000-----------------------------------|
Pm  . . . . .    . . . . ... ...

not sure about next part so ill skip it for now

then this repeated a bunch

C-------------------------|
G-------------------------|
D#------------------------|
A#------------------------|
F---4----1----4----1------|
A#--4----1----4----1------|
Pm       .         .

THen this cool riff over it after a few times you can do it with hammer ons or just pick 
fast

C--------------------------------------------------|

G--------------------------------------------------|
D#-------------------------------------------------|
A#-------------------------------------------------|
F--------5-----------5-----------4-----------4-----|
A#-5-7-8---8-7-5-7-8---8-7-4-5-7---7-5-4-5-7---7-5-|



Important: The song above is NOT stored on the Chordie server. The original song is hosted at www.guitaretab.com. Chordie works as a search engine and provides on-the-fly formatting. Chordie does not index songs against artists/composers will. To remove this song please click here.

This song is displayed as text-only. Transposing and tuning is only available for chordpro-songs.

Login - add to songbook

Rating click stars to rate

Layout
Accuracy

SHARE PAGE  



You need to log in to post comments