Chordie logo


Rey Del Mosh   Jodio Loco Sucio







REY DEL MOSH
As recorded by JLS
(From the 2001 Album SERPIENTE EN EL HUERTO)

Transcribed by JLS

 Words and Music by Leo Susana
Arranged by JLS
 

    Q=70
    Em
   4/4
    Gtr I
    Q  E E Q  E S S   Q  E E  E  E S S S S
||------------------|----------------------|
||o-----------------|----------------------|
||------------------|----------------------|
||------------------|----------------------|
||o----2------------|----2---------2-3-2-3-|
||--0----3S5--3-3S5-|-0----3-/5-/5---------|


  Q  E E Q  E S S   Q  E E E E S S S S
|-----------------|----------------------||
|-----------------|---------------------o||
|-----------------|----------------------||
|-----------------|----------------------||
|----2-2-4--------|----2-------2-3-2-3--o||
|-0----3S5--3-3S5-|-0----3-5-5-----------||


      Q  Q  S S S S S S S S   Q  E E  H
|-||------------------------|---------------||-|
|-||o-----------------------|--------------o||-|
|-||------------------------|---------------||-|
|-||------------------------|---------------||-|
|-||o-7--5--3-5-3-2-3-2-----|-7--5-7S10----o||-|
|-||--------------------5-3-|---------------||-|

  Fast Rock Q=110(8=s8)
  E E. E  E. E E
|-------------------|
|-------------------|
|-------------------|
|-------------------|
|---2--------2-3----|
|-0----3-/5---------|



Important: The song above is NOT stored on the Chordie server. The original song is hosted at www.guitaretab.com. Chordie works as a search engine and provides on-the-fly formatting. Chordie does not index songs against artists/composers will. To remove this song please click here.

This song is displayed as text-only. Transposing and tuning is only available for chordpro-songs.

Login - add to songbook

Rating click stars to rate

Layout
Accuracy

SHARE PAGE  




You need to log in to post comments