eToCache5 = ""; ?> Victims Of Love by Joe Lamont - guitar chords, guitar tabs and lyrics - chordie

Victims Of Love

Joe Lamont

e|-------------------3--3---------------3-5-3------------|

B|--5------5-6-----6------6---3-5-----6---------3-6\5-3--|
G|--5----5-------5----------5-------5-5-------5----------|
D|--5--5-------5----------------------5------------------|
A|--3---------------------------------3------------------|
E|-------------------------------------------------------|
PLUCKING: C-G-Am-Em-F-C-Dm-G-G7

 CGAmEm
e|--------3--------------3--------------0-------------------|
B|----------1--------------0--------------1------------0----|
G|------0-----0--------------0--------2-----2---------------|
D|----2---------2------0-------0----2---------2------2------|
A|--3----------------2------------0----------------2--------|
E|-----------------3-----------------------------0----------|


 FCDmGG7
e|--------1-3-----------------1-3----------3---------1--|
B|------1------------1------3------------0---------0----|
G|----2------------0------2------------0---------0------|
D|--3------------2------0-------------------------------|
A|-------------3---------------------2---------2--------|
E|---------------------------------3---------3----------|
CHORDS: C-G-Am-Em-F-C-Dm-G


 CG
Our hearts have been to battle
 AmEm
Our souls have been to war
 FCDmG
We've lost the will to carry on, we don't believe no more
 CG
Oh why is it that we got it set
 AmEm
That this could never happen to us
 FCDmG
 How could it be..cause baby here we are...

REFRAIN:
 CGAmEm
 Victims of love are broken down unfair
 FC
So sad to see the debris
 DmG
Scattered everywhere
 CGAmEm
 Victims of love, still cannot believe
 FC
We're the victims of love
 DmG
We cannot....retreat

e|-------------------3--3----------|
B|--5------5-6-----6------6---3-5--|
G|--5----5-------5----------5------|
D|--5--5-------5-------------------|
A|--3------------------------------|
E|---------------------------------|


DO THE CHORD PATTERN AND THE PLUCKING:

 CGAmEm
It used to be so easy, it used to be so good
 FCDmG
We had an understanding that got misunderstood
 CGAmEm
I thought we are survivors and we'll never go down
 FCDm
But now were just outsiders as our love
 G
Comes stumbling down

REFRAIN:
 CGAmEm
 Victims of love are broken down unfair
 FC
So sad to see the debris
 DmG
Scattered everywhere
 CGAmEm
 Victims of love, still cannot believe
 FC
We're the victims of love
 DmG
We cannot....retreat

e|------------8--|
B|------6-5-6----|
G|--5-7----------|
D|---------------|
A|---------------|
E|---------------|


BRIDGE:

 AmEm
 Maybe we played it a little bit to sure
 FC
And everything is hearts and roses
 AmEm
 Now fate stand still and closed the door
 Bb
And we were just left standing
 F
Till we realized the ending
 G
Why so near
 Am
 Where do we go from here

REFRAIN:
 DABmF#m
 Victims of love are broken down unfair
 GD
So sad to see the debris
 EmA
Scattered everywhere
 DABmF#m
 Victims of love, still cannot believe
 GD
We're the victims of love(victims of love)

 GD
Victims of love(victims of love)

 GD
Victims of love(victims of love)

 EmA
We cannot....retreat

| / slide up
| \ slide down
| h hammer-on
| p pull-off
| ~ vibrato
| + harmonic
| x Mute note


A Am Bb Bm C D Dm Em F F#m G G7
variations - click chord images
Transpose chords:
Tuning:
Cool service:
View: Size:
A  A  A
Rating:
Layout:
  • Currently 1/5 Stars.
  • 1
  • 2
  • 3
  • 4
  • 5
 
Accuracy:
  • Currently 3/5 Stars.
  • 1
  • 2
  • 3
  • 4
  • 5
 
click stars to rate
Chordie recommends:
Check out these online guitar lessons
Songbook:
Login to add this song to your songbook
Support the artist
Preview/buy this song
MSN Music
Why this non-profit ad?

 
login to add comments/video/corrections