Guitar Tabs, Chords and Lyrics


Acoustic Backing Always With Me Always With You   Joe Satriani



6/8 timing

Part One [play this a fair few times]

e|------------------------------------------------|
B|------5-----------5-----------4-----------2-----|
G|----8---8-------8---8-------6---6-------4---4---|
D|--9-------9---9-------9---6-------6---4-------4-|
A|------------------------------------------------|
E|7-----------7-----------0-----------2-----------|   Play 3 times


e|------------------------------------------------|
B|------2-----------4-----------2-----------2-----|
G|----4---4-------6---6-------4---4-------3---3---|
D|--4-------4---6-------6---4-------4---4-------4-|
A|------------------------------------------------|
E|4-----------0-----------2-----------2-----------|

Part Two [starts at 1:05]

e|------------------------------------------------|
B|------------------------------------------------|
G|------7-----------7-----------2-----------4-----|
D|----11--11------11--11------4---4-------0---0---|
A|--9-------9---9-------9---2-------2---4-------4-|
E|7-----------7-----------0-----------2-----------|    play 3 times


e|------------------------------------------------                     e|----|
B|------------------------------------------------                     B|----|
G|------2-----------0-----------4-----------3-----                     G|----|
D|----0---0-------4---4-------0---0-------0---0---                     D|----|
A|--0-------0---2-------2---4-------4---4-------4-                     A|----|
E|3-----------0-----------2-----------2-----------  play twice, end on E|2---|



Important: The song above is NOT stored on the Chordie server. The original song is hosted at www.guitaretab.com. Chordie works as a search engine and provides on-the-fly formatting. Chordie does not index songs against artists'/composers' will. To remove this song please click here.

This song is displayed as text-only. Transposing and tuning is only available for chordpro-songs.

Login - add to songbook

Rating click stars to rate

Layout
Accuracy

SHARE PAGE  




You need to log in to post comments