All Night Long

Joe Walsh

 EEAE
|---0--3-0-2-0---0-3-0-2-0---0----0-3-0-2-0---0----0-----|
|--------------2-----------2----------------2----2-------|
|--------------------------------------------------------|
|--------------------------------------------------------|
|--------------------------------------------------------|
|--------------------------------------------------------|

2 times

 EEAE
|---0--3-0-2-0-----0-3-0-2-0-----0-3-0-2-0-----0------0----|
|---0--3-0-2-0-2---0-3-0-2-0-2---0-3-0-2-0-2---0--2---0----|
|--------------0h1-----------0h1-----------0h1----0h1------|
|----------------------------------------------------------|
|----------------------------------------------------------|
|----------------------------------------------------------|

2 times

 E
   We get up early and we work all day
 E
   We put our time in 'cause we like to stay up
 DADA
   All night long,     all night long
 E
   We keep on grinnin' till the weekend comes
 E
   Just a pinch between your cheek and gum
 DADA
   All night long,     all night long
 EEAE
|---0--3-0-2-0---0-3-0-2-0---0----0-3-0-2-0---0----0-----|
|--------------2-----------2----------------2----2-------|
|--------------------------------------------------------|
|--------------------------------------------------------|
|--------------------------------------------------------|
|--------------------------------------------------------|

2 times

 E
   Start in the morning and get the job done
 E
   Take care of business and we have some fun
 DADA
   All night long,     all night long
 E
   We like a long neck and a good old song
 E
   Turn it up and then we sing along
 DA
   Sing along
 D
   We're all stayin' up all night long

|-9-7-----9-7------9-7---------------------7b-9-7----------------------|
|-----8b------8br------8br-------7-5--------------7b-br----5---7b--7-5-|
|--------------------------9--6b-----6br-----------------6---6---6-----|
|---------------------------------------7------------------------------|
|----------------------------------------------------------------------|
|----------------------------------------------------------------------|


 EEAE
|---0--3-0-2-0-----0-3-0-2-0-----0-3-0-2-0-----0------0----|
|---0--3-0-2-0-2---0-3-0-2-0-2---0-3-0-2-0-2---0--2---0----|
|--------------0h1-----------0h1-----------0h1----0h1------|
|----------------------------------------------------------|
|----------------------------------------------------------|
|----------------------------------------------------------|

2 times

There is alot more but its long and annoying
and i didnt feel like doing it just yet.


A D E
variations - click chord images
Transpose chords:
Tuning:
Cool service:
View: Size:
A  A  A
Rating:
Layout:
  • Currently 3.4/5 Stars.
  • 1
  • 2
  • 3
  • 4
  • 5
 
Accuracy:
  • Currently 2.4/5 Stars.
  • 1
  • 2
  • 3
  • 4
  • 5
 
click stars to rate
Chordie recommends:
Get acoustic guitar lessons and electric guitar lessons at JamPlay.com
Songbook:
Login to add this song to your songbook
Support the artist
Preview/buy this song
MSN Music
Why this non-profit ad?

 
login to add comments/video/corrections