Guitar Tabs, Chords and Lyrics


Natural Disaster  Joel Plaskett

[A]Am I a[Bm]nother Casual[G]ty?
[A]In the [Bm]battle you're figh[G]ting?
[A]You're your [Bm]own worse ene[G]my,
[A]At war with [Bm]yourself, but you [G]can't see.


Chorus:

[A]I can't [Bm]stand to watch your,
[G]Comet coming fast,
[A]Everywhere you [Bm]go it seems [G]lighting strikes and then you crash,
[A]I don't know [Bm]how you do it,
[G]It always ends the same,
[A]Everywhere you [Bm]go it seems [G]lightning strikes but there's no
[A]Rain...
[Bm]No [G]rain, ...

Verse:

Feel like you're moving in slow motion,
And you don't know where you're going,
You tried it all and it's too boring,
Tighten up your grip cause it's a long way down.


Chorus:

And I can't stand to watch your,
Comet coming fast,
Everywhere you go it seems lighting strikes and then you crash,
I don't know how you do it,
It always ends the same,
Everywhere you go it seems lightning strikes but there's no


Bridge:

[C/E]Rain,
G*
Watching you slip away,
[A#]It's getting harder every[F]day,
c/E G*
When you're coming down like a hurricane,
[A#]I can't stand to see you in [F]pain,
So I just look away.


Solo (part 1):

|-10h11h12-10----10----|-------10----------------|-----------------|
|-------------10----10-|-10-12----12-12-10-------|-----------------|
|----------------------|-------------------12-11-|---------7-9s11--|
|----------------------|-------------------------|-----7-9---------|
|----------------------|-------------------------|-7-9-------------|
|----------------------|-------------------------|-----------------|
|-------------------|-------10-------|-10h11h12-10----10----|
|-10----10----10-12-|-10-12----12-12-|-------------10----10-|
|----11----11-------|----------------|----------------------|
|-------------------|----------------|----------------------|
|-------------------|----------------|----------------------|
|-------------------|----------------|----------------------|



Chorus:

[A]I can't [Bm]stand to watch your,
[G]Comet coming fast,
[A]Everywhere you [Bm]go it seems [G]lighting strikes and then you crash,
[A]I don't know [Bm]how you do it,
[G]It always ends the same,
[A]Everywhere you [Bm]go it seems [G]lightning strikes but there's no
[A]Rain...
[Bm]No [G]rain, ...

Solo (part 2):

|-10h11h12-10----10----|-------10----------------|---------------|
|-------------10----10-|-10-12----12-12-10-------|---------------|
|----------------------|-------------------12-11-|-11-11-9s7-9-7-|
|----------------------|-------------------------|---------------|
|----------------------|-------------------------|---------------|
|----------------------|-------------------------|---------------|
|-10h11h12-10----10----|---------------|---------------------|
|-------------10----10-|---------------|---------------------|
|----------------------|-12-11s9-------|---------------------|
|----------------------|---------12----|-12-9----------------|
|----------------------|------------12-|------12-------------|
|----------------------|---------------|---------12-10-12-10-|
|-----------------|----------------------|----------------------------|
|-----------------|----10-10-10-10----10-|-10-10-12-12-12-12-10-10-10-|
|-----------------|-11-------------11----|----------------------------|
|------------9-12-|----------------------|----------------------------|
|-------9-12------|----------------------|----------------------------|
|-10-12-----------|----------------------|----------------------------|
|-------12----10--|----------------|----------|------------|------------|
|-10-12----12-----|-10-12-10-------|----------|------------|------------|
|-----------------|----------12-11-|-11-12-12-|-9----------|------------|
|-----------------|----------------|----------|---12-12-12-|----9-12-9-9|
|-----------------|----------------|----------|------------|-12---------|
|-----------------|----------------|----------|------------|------------|
|-------------|-------------|
|-------------|-------------|
|-------------|-------------|
|----9-12-9-9-|----9-12-9-9-|
|-12----------|-12----------|
|-------------|-------------| .....



Lightening strikes but there's no rain,
no rain, no rain, ...


Important: The song above is NOT stored on the Chordie server. The original song is hosted at www.guitaretab.com. Chordie works as a search engine and provides on-the-fly formatting. Chordie does not index songs against artists'/composers' will. To remove this song please click here.

Text color:
Chord color:
Chord grids: 
Font size:    
Page size: 

A A# Bm C/E F G
variations - click chord images

Login - add to songbook

Transpose chords

Tuning

Rating click stars to rate

Layout
Accuracy

SHARE PAGE  




You need to log in to post comments