Clueless Wonder

Joel Plaskett

-e-
 -A-
  -Dflat-
 -E-
 ABDEA/D
  -0-  -0-  -0-  -0-  -0-
  -0-  -0-  -0-  -0-  -0-
  -0-  -2-  -5-  -4-  -5-
  -0-  -1-  -3-  -3-  -3-
  -0-  -2-  -5-  -2-  -x-
  -0-  -0-  -0-  -0-  -5-


intro:
------------0-------------0-------|
-----------0----5--3------0-------|
----------0----------0----4^5-----|
--------4-------------0---0-------|
----3/5-------------------0-------|
--------------------------0-------|


Verse:

 A
 Clueless wonder
 BA
 Why do you believe
 BAD
 why do you believe that we're closing in on you?
 A
 Clueless wonder,
 BA
 You could not conceive
 BAD
 You could not conceive the damage you could do

Chorus:

E D D/A , D D/A , D D/A
Your brighter then the sun,
E D D/A , D D/A , D D/A
Your numb to all the pain,
 EDA
 Your so unlike the ones who live there life on lovers lane, 

Fill:

 AD
-0-----4--5------0---------------|
-0---------------0---------------|
-0---------------5---------------|  X2
-0---------------3---------------|
-0---------------5---------------|
-0---------------0---------------|


Clueless wonder
Who do you suppose,
who do you suppose might save you from yourself
Will you find another who will sweep you off your feet,
Who could sweep you off your feet and take you somewhere else

Chorus

Clueless wonder
Who is on this earth,
Who is on this earth who knows you like I do
Could there be another who could feel your beating heart,
Who can see into your soul
and knows that it is true

outro:

--12-12-12-10-10-10-9-9--9/7--7/5---|
------------------------------------|
--12-12-12-10-10-10-9-9--9/7--7/5---|
------------------------------------|
------------------------------------|
------------------------------------|				



A A/D B D E
variations - click chord images
Transpose chords:
Tuning:
Cool service:
View: Size:
A  A  A
Rating:
Layout:
  • Currently 2.8/5 Stars.
  • 1
  • 2
  • 3
  • 4
  • 5
 
Accuracy:
  • Currently 2.8/5 Stars.
  • 1
  • 2
  • 3
  • 4
  • 5
 
click stars to rate
Chordie recommends:
Learn to play this song & others via video guitar lessons at JamPlay.com
Songbook:
Login to add this song to your songbook
Support the artist
Preview/buy this song
MSN Music
Why this non-profit ad?

 
login to add comments/video/corrections