Guitar Tabs, Chords and Lyrics
Major upgrade!! After one year development the new version of Chordie is now online! Please give feedback.


Cherry Bomb   John Cougar Mellencamp


e-------3----------------2----

B-----------1---1---1----3----

G-----------2------------4----

D---2-------2-------2----4----

A---2---2-------x---3----2----

E-------3---x---x---x----2----







Enjoy!


                                                               


------------------------------------------------------





George Quebbeman (and a guitar pickin' friend)


Brighton, MI, USA


email: 75224.1545@compuserve.com


"Compound interest is the eighth wonder of the world."


                                    -J.P.Morgan


                                                               


------------------------------------------------------				


Important: The song above is NOT stored on the Chordie server. The original song is hosted at www.guitaretab.com. Chordie works as a search engine and provides on-the-fly formatting. Chordie does not index songs against artists'/composers' will. To remove this song please click here.

This song is displayed as text-only. Transposing and tuning is only available for chordpro-songs.
Rate #0 of 0 versions

Jango Player

Login - add to songbook

SHARE PAGE  




You need to log in to post comments