"yes"; ?> For You by John Denver - guitar chords, guitar tabs and lyrics - chordie

For You

John Denver

 CCC
E---------------------------------------------------------]

B---1--------1---1----1--------1---1----1--------1---1----]
G--------0---------0-------0---------0-------0----------0-]
D------2---2---2---------2---2---2---------2---2---2------]
A---3-----------------3-----------------3-----------------]
E---------------------------------------------------------]

Verses

 CAmF
E---------------------------------------------------------]

B---1--------1---1----1--------1---1----1--------1---1----]
G--------0---------0-------2---------2-------2----------2-]
D------2---2---2---------2---2---2------3--3---3---3------]
A---3-----------------0-----------------3-----------------]
E---------------------------------------------------------]

 DmGC
E---------------------------------------------------------]

B---6--------6---6----3-----------------1--------1---1----]
G--------7---------7-----------4---4---------0----------0-]
D------7---7---7-----------5---------5-----2---2---2------]
A---5--------------------5---5---5------3-----------------]
E---------------------3-----------------------------------]

Chorus

C Am F G Repeat: 2 times
E---------------------0----0---1----3----------------------]--]

B---1--------1---1----1--------1----3----------------------]--]
G--------0---------0--2----2---2----4----------------------]--]
D------2---2---2------2--2---2-3----5----------------------]--]
A---3-----------------0--------3----5----------------------]--]
E------------------------------1----3----------------------]--]

 CGFEDC
E---------------------3--------1----0----2--------------------]

B---1--------1---1----3--------1----0----3---1--------1---1---]
G--------0---------0--4----4---4----1----2--------0---------0-]
D------2---2---2------5--5---5-3----2----0------2---2---2-----]
A---3-----------------5--------3----2--------3----------------]
E---------------------3--------1----0-------------------------]

Intro: C C C

Verse 1

 C
Just a look in your eyes again
 AmFDm
 Just to lay in your arms    
 GC
Just to be the first one always there for you
 GCAm
 Just to live in your laughter    
 F
Just to sing in your heart
 DmGC
 Just to be every one of your dreams come true  

Verse 2

 GC
 Just to sit by your window
 AmFDm
 Just to touch in the night    
 GC
Just to offer a prayer each day for you
 GCAm
 Just to long for your kisses   
 F
Just to dream of your sighs
 DmGCC
 Just to know that I'd give my life for you       

Chorus

C Am *F *G
For you for the rest of my life
C Am *F *G
For you all the best of my life
C G *F *E *D C
For you alone, only for you

Verse 3

 GC
 Just to wake up each morning
 AmFDm
 Just to you by my side     
 GC
Just to know that you're never really far away 
 GCAm
 Just a reason for living    
 F
Just to say I adore
 DmGCC
 Just to know that you're here in my heart to stay      

Chorus

C Am *F *G
For you for the rest of my life
C Am *F *G
For you all the best of my life
C G *F *E *D C
For you alone, only for you

 CAmFDmGCC+
                                     
Outro verse

Refrain C
Just the words of a love song
 AmFDm
 Just the beat of my heart  
 GCC+
Just the pledge of my life, my love, for you   

Notes: * bass note or one strum, you choose
Notes: + add extra notes, high octave scale run

(Piano notes for C played Arrpegio: CGEGCBGE, low to high)
Would have to use alternate tuning (perhaps open C)to play
exact note run from piano, don't have the low C on guitar,
this is not an exact transcription.
Check-out my Edie Brickell posting for "Circle"
And my Kate Wolf postings.
Comments, questions, corrections. Copper shines like Arizona
gold.
E-mail me at minstrel71@yahoo.com


Corrected by optician55. View original
Am C C+ D Dm E F G
variations - click chord images
Transpose chords:
Tuning:
Cool service:
View: Size:
A  A  A
Rating:
Layout:
  • Currently 2.8/5 Stars.
  • 1
  • 2
  • 3
  • 4
  • 5
 
Accuracy:
  • Currently 3.1/5 Stars.
  • 1
  • 2
  • 3
  • 4
  • 5
 
click stars to rate
Chordie recommends:
Learn to play songs at Jamplay.com with video guitar lessons
Songbook:
Login to add this song to your songbook
Support the artist
Preview/buy this song
MSN Music
Why this non-profit ad?

 
login to add comments/video/corrections