eToCache5 = ""; ?> Cowboys Delight by John Denver - guitar chords, guitar tabs and lyrics - chordie

Cowboys Delight

John Denver

                   -------0-----|

-----2---2---|
---2-------2-|
-------------|
-0-----------|
-------------|

 AAsus4A
Sing songs of the sunrise into the nigh
 AAsus4A
the stars as a timepiece make it all right
 AAsus4A
Make friends with the darkness, talk to the moon
 AAsus4
and when the light lifts,
Asus4 A A/g# A/f# A/e D D/c# E (Esus4)
you can let out a tune

 AAsus4A
Then to the mountains, climbed through the sky
 AAsus4A
They showed there their whiteness, watched their gold fly
 AAsus4A
Shared in their treasures, shook at their might
A Asus4 / C ( walkdown #2)
Spoke softly in wonders... cowboy's delight

(walkdown #2 : my best attempt at transcribing what is
probably a two-guitar part)

 C
  ^                        ^           ^
|----------0-------------|----------0-------------|
|-------1-----1----------|-------1--------1-------|
|----0-----------0-------|----0--------0----------|
|------------------------|-2----------------------|
|-3----------------------|------------------------|
|------------------------|------------------------|

1 . 2 . 3 . 1 . 2 . 3 .

(h)
^ ^
|------------------------|------------------------|
|---1-----1--------------|------------1-----------|
|-0-2-----0--------------|---0-----0-----0--------|
|---------------2--------|------2-----------2-----|
|---3--------------------|---3--------------------|
|------------------------|------------------------|

1 . 2 . 3 . 1 . 2 . 3 .

(h)
^ ^
|------------------------|------------------------|
|---1-----1--------------|------------1-----------|
|-0-2-----0--------------|---0-----0-----0--------|
|---------------2--------|------2-----------2-----|
|---3--------------------|---3--------------------|
|------------------------|------------------------|

1 . 2 . 3 . 1 . 2 . 3 .

(h)
^ ^
|------------------------|------------------------|
|---1-----1--------------|------------------------|
|-0-2-----0--------------|---0--------------------|
|---------------2--------|---------3-----2--------|
|---3--------------------|---3--------------------|
|------------------------|------------------------|

1 . 2 . 3 . 1 . 2 . 3 .

 DD/C#
|------------------------|----------2-------------|
|----------3-------------|-------3-----3----------|
|-------2-----2----------|----2-----------2-------|
|----4-----------4-------|------------------------|
|-5----------------------|-4----------------------|
|------------------------|------------------------|

1 . 2 . 3 . 1 . 2 . 3 .

 Bm7D/a
|------------------------|----------2-------------|
|----------3-------------|-------3-----3----------|
|-------2-----2----------|----2-----------2-------|
|----4-----------4-------|------------------------|
|-2----------------------|------------------------|
|------------------------|-5----------------------|

1 . 2 . 3 . 1 . 2 . 3 .

 Bm7D/a
|------------------------|----------2-------------|
|----------3-------------|-------3-----3----------|
|-------2-----2----------|----2-----------2-------|
|----4-----------4-------|------------------------|
|-2----------------------|------------------------|
|------------------------|-5----------------------|

1 . 2 . 3 . 1 . 2 . 3 .

 Bm7D/a
|------------------------|----------2-------------|
|----------3-------------|-------3----------------|
|-------2-----2----------|----2-------------------|
|----4-----------4-------|----------------4-------|
|-2----------------------|-------------2----------|
|------------------------|-5----------------------|

1 . 2 . 3 . 1 . 2 . 3 .
Sing...

 AAsus4A
(Sing) songs of the sunrise into the night
 AAsus4A
the song of the mountains... cowboy's delight
 AAsus4A
the stars as a timepiece make it all right
 AAsus4
Sing songs of the mountain...
Asus4 A... (into walkdown #1, then #2)
cowboy's delight

(intro & end)


A Asus4 Bm7 C D D/C# D/a
variations - click chord images
Transpose chords:
Tuning:
Cool service:
View: Size:
A  A  A
Rating:
Layout:
  • Currently 3.3/5 Stars.
  • 1
  • 2
  • 3
  • 4
  • 5
 
Accuracy:
  • Currently 4/5 Stars.
  • 1
  • 2
  • 3
  • 4
  • 5
 
click stars to rate
Chordie recommends:
Check out JamPlay.com for online video guitar lessons
Songbook:
Login to add this song to your songbook
Support the artist
Preview/buy this song
MSN Music
Why this non-profit ad?

 
login to add comments/video/corrections