Guitar Tabs, Chords and Lyrics


Simple Life   Elton John



The Simple Life - Sherwood

As far as I can tell, this song has some weird chords in it, I've noted the irregular 
with asterisks up here, cause I have no idea what they're called.

C#m* = x46650
A* = x02200
B* = x24400
A** = x32200
F#* = 244300

Those are in order of appearance, some of them were pretty hard to hear, so don't stake 
life on 'em.  Anyway, here it is:


E
	This is the easy life
C#m*					A*
	This is the simple life baby
		  B*  		 E
	And you may be just what I

	Have always been searching for
C#m*						A*
	A light through an open door, darling
		     B*		   E		E7
	But you're guarding it all night
		 A*       B*		E
	I will whisper a song in your ear
		 A*   		  B*  	 C#m*
	Oh the things you've been missing my dear
		    A*	  A**
	If you remember the tune
	     E7	   F#*
	It's all I can do
		  A*      B*	     E
	Just remember I wrote it for you

	And I carry an open box
	Of rusted and broken locks, slowly
	Can you show me where to lie?
	Cause I'm tired as I can be
	My legs aren't a part of me darling
	Let us go then, you and I, through the night

	I will whisper a song in your ear
	Oh the things you've been missing my dear
	If you remember the tune
	It's all I can do
	Just remember I wrote it for you

	I will whisper a song in your ear
	Oh the things you've been missing my dear
	If you remember the tune
	It's all I can do
	Just remember I wrote it for you
	Just remember I wrote it for you

Solo:

e|---------------------------------------------------------------------------|
B|---------------------------------------------------------------------------|
G|---------------------------------------------------------------------------|
D|---------2-4-4/6---6-4-2-----------2-4-4/6---6-4-2---4-4/6-----4-4/6-------|
A|-------2-------------------------4-------------------------4---------------|
E|-0-2-4---------------------0-2-4-------------------------------------7-----|

e|---------------------------------------------------------------------------|
B|---------5-7-7/9---9-7-5-----------5-7-7/9---9-7-5---7-7/9---7-7/9---------|
G|-------4-------------------------6-------------------------6---------------|
D|-2-4-6---------------------2-4-6-----------------------------------9---7/6-|
A|---------------------------------------------------------------------------|
E|---------------------------------------------------------------------------|

e|---------------------------------------------------------------------------|
B|-----7-5-3-----------------------------------------------------------------|
G|-4-6-7-6-4-4-2-1-----------------------------------------------------------|
D|-----------6-4-2-----------------------------------------------------------|
A|---------------------------------------------------------------------------|


Important: The song above is NOT stored on the Chordie server. The original song is hosted at www.guitaretab.com. Chordie works as a search engine and provides on-the-fly formatting. Chordie does not index songs against artists/composers will. To remove this song please click here.

This song is displayed as text-only. Transposing and tuning is only available for chordpro-songs.

Login - add to songbook

Rating click stars to rate

Layout
Accuracy

SHARE PAGE  




You need to log in to post comments