Chordie logo

Long Dark Night   John Fogerty



(/) Slide Up  (\) Slide Down  (h) Hammer On  (p) Pull Off  (b) Bend (r) Release (v) Vibrato

Long Dark Night by John Fogerty.
Tapped by Kronos1000

Before playing tune every string on your guitar one step down, or you'll be out of tune.

Chords:

E (D):

D|--0--
A|--0--
F|--1--
C|--2--
G|--2--
D|--0--

E7 (D7):

D|--0--
A|--4--
F|--1--
C|--2--
G|--2--
D|--0--

A (G):

D|--0--
A|--2--
F|--2--
C|--2--
G|--0--
D|-----

A7 (G7):

D|--3--
A|--2--
F|--2--
C|-----
G|-----
D|-----

Intro:

D|-------------            |----------0--|
A|-------------            |--3--3b2-----|
F|--2b3--------            |-------------|
C|-------3--0-- E E7 E X E |-------------|
G|------------- (Chords)   |-------------|
D|-------------            |-------------|

E

George is in the jungle
Knockin' on the door
Come to get your children
Wants to have a war

Chorus

D|-------------|
A|-------------|
F|-------------|
C|-------------|
G|----------0--|
D|--0--3b4-----|	 A

Come on,


D|----------|
A|----------|
F|----------|
C|----------|
G|----------|
D|--0--3p0--|         E E7 E X E

lord you'd better run,

D|--------------------------|
A|--------------------------|
F|--------------------------|
C|--7--7--7--7--5--5--7--7--|
G|--5--5--4--4--3--3--5--5--|
D|--------------------------|                   E E7 E X E

Be a long dark night before this thing is done


Brownie's in the outhouse
Katrina on the line
Gulf is a disaster
But Georgie says it's fine

Chorus

Come on, lord you'd better run,
Be a long dark night before this thing is done

Bridge 1

D|--7--
A|--8--
F|-----
C|-----
G|-----
D|----- Repeat a lot of times....

D|-------------|
A|-------------|
F|-------------|
C|-------------|
G|----------0--|
D|--0--3b4-----|	 A


D|----------|
A|----------|
F|----------|
C|----------|
G|----------|
A|--0--3p0--|  E E7 E X E


D|--------------------------|
A|--------------------------|
F|--------------------------|
C|--7--7--7--7--5--5--7--7--|
G|--5--5--4--4--3--3--5--5--|
D|--------------------------|

Harmonica plays...


Brownie's in the kitchen messin' with the pan
Dickie's in the back stealing everything he can


Chorus

Come on, Lord you'd better run,
Be a long dark night before this thing is done

E                              E E7 E X E

You better run, you better run,

                    A 			E E7 E X E

Lord you better run,  wow, you better run,

D|--------------------------|
A|--------------------------|
F|--------------------------|
C|--7--7--7--7--5--5--7--7--|
G|--5--5--4--4--3--3--5--5--|
D|--------------------------|

Harmonica plays...

N.C.

Runnin' down the highway
Shoutin' to the Lord
George's got religion
And you know he can't afford more, yeah

Chorus

Come on, Lord you'd better run
Be a long dark night before this thing is done
Be a long dark night before this thing is done

Ending

D|--0--
A|--5--
F|-----
C|-----
G|-----
D|----- Repeat a lot of times....

D|-------------|
A|-------------|
F|-------------|
C|-------------|
G|----------0--|
D|--0--3b4-----|	 A7


D|----------|
A|----------|
F|----------|
C|----------|
G|----------|
A|--0--3p0--|

D|--7--
A|--8--
F|-----
C|-----
G|-----
D|----- Same rythm as E E7 E X E


D|--------------------------|
A|--------------------------|
F|--------------------------|
C|--7--7--7--7--5--5--7--7--|
G|--5--5--4--4--3--3--5--5--|
D|--------------------------|    E



Important: The song above is NOT stored on the Chordie server. The original song is hosted at www.guitaretab.com. Chordie works as a search engine and provides on-the-fly formatting. Chordie does not index songs against artists/composers will. To remove this song please click here.

This song is displayed as text-only. Transposing and tuning is only available for chordpro-songs.

Login - add to songbook

Rating click stars to rate

Layout
Accuracy

SHARE PAGE  

You need to log in to post comments