Guitar Tabs, Chords and Lyrics


sugar In My Life  John Fogerty

-------------------------------------------------------------------------------



-------------------------------------------------------------------------------

INTRO: play with some soul. hand-slap the guitar a little or something to
give it some beat.
   [C]                   [F]                    [C]                 [G]                                            
e|-----0----3-0-----------------1-------------0---3-0------3-----------------|
B|-1------1------1----1----1------1------ 1-----1-----1----3-----------------|
G|---0-------------0-----2----2-----2-------0-----------2--0-----------------|
D|--------------------3---------------3-0------------------0-----------------|
A|-3--------------------------------------3----------------2-----------------|
E|---------------------------------------------------------3-----------------|



VERSE I: Use these full chords. They sound a little better because of the
deeper sound they put out.

    [C]          [F]                     [C] [G] 
e|--0---------1--------------------0---------3-------------------------------|
B|--1---------1--------------------1---------3-------------------------------|
G|--0---------2--------------------0---------0-------------------------------|
D|--2---------3--------------------2---------0-------------------------------|
A|--3---------3--------------------3---------2-------------------------------|
E|--3------------------------------3---------3-------------------------------|

everybody want it.. everybody need it..


    [C]          [F]                      [C] [G] 
e|--0---------1---------------------0---------3------------------------------|
B|--1---------1---------------------1---------3------------------------------|
G|--0---------2---------------------0---------0------------------------------|
D|--2---------3---------------------2---------0------------------------------|
A|--3---------3---------------------3---------2------------------------------|
E|--3-------------------------------3---------3------------------------------|

everybody got to have it.. everybody knows.. i'm lookin for some..


CHORUS: Played just like the intro
   [C]                  [F]                      [C]                      [G]                                      
e|-----0----3-0-----------------1--------------0----3--0---------3-----------|
B|-1------1-----1----1-----1------1--------1------1-------1------3-----------|
G|---0------------0-----2----2------2--------0--------------2----0-----------|
D|-------------------3----------------3-0------------------------0-----------|
A|-3---------------------------------------3---------------------2-----------|
E|---------------------------------------------------------------3-----------|

suga suga.. suga suga.. suga suga in my life


Same chords throughout the rest of the song. Here are the rest of the lyrics.
VERSE II
    [C]When the day is [F]over
    [C]And the work is [G]done
    [C]That's when I got to [F]find my baby
    [C]She's the only [G]one
G (or NC)
Lookin' for some

CHORUS: (Again played like intro)

    [C]Sugar-sugar
    [F]Sugar-sugar
    [C]Sugar-sugar
    [G]In my life
SOLO: working on it right now
VERSE III
    [C]Mama always told [F]me    **(guitar fill here)**
    [C]Now don't you be no [G]fool
    [C]Take some time to [F]share your lovin'
    [C]That's the gold[G]en rule
NC
Got to have some
CHORUS and end


Other guitar plays some fancy licks that sound great and this is just one i
picked out at a certain part of the song that i liked.

2nd guitar: Capo 1st fret

e|-------------------------------|
B|----------3--5~---3------------|
G|----3-/-4-----------2~---------|
D|-------------------------------|
A|-------------------------------|
E|-------------------------------|


| / slide up
| \ slide down
| h hammer-on
| p pull-off
| ~ vibrato
| NC No chord
| x Mute note

The solo for this song along with Honey Do and Rhubarb Pie by John Fogerty
will all be coming soon. Other requests? Email me at LilMac725@aol.com
===============================================================================

Important: The song above is NOT stored on the Chordie server. The original song is hosted at www.guitaretab.com. Chordie works as a search engine and provides on-the-fly formatting. Chordie does not index songs against artists'/composers' will. To remove this song please click here.

Text color:
Chord color:
Chord grids: 
Font size:    
Page size: 

C F G
variations - click chord images

Login - add to songbook

Transpose chords

Tuning

Rating click stars to rate

Layout
Accuracy

SHARE PAGE  




You need to log in to post comments