Guitar Tabs, Chords and Lyrics


Runaway  John Frusciante

-----------------------------------------------------------------------



-----------------------------------------------------------------------

e|-------------0----------|--------------------------------------------|
B|----------1-------------|--------------------------------------------|
G|--------2---------------|----( play 4 times )------------------------|
D|------2-----------------|--------------------------------------------|
A|---0-------------0------|--------------------------------------------|
E|--------------------3---|--------------------------------------------|
                A[Am]s I walk along, I wo[G]nder
                what went wrong with o[F]ur love
                A love that was so st[E]rong
And as I still walk on
I think of the things we've done
Together, while our hearts were young

    Bridge      I[A]'m a walkin' in the rain
                T[F#m]ears are fallin' and I feel a pain
                wi[A]shin' you were here by me
                T[F#m]o end this misery
                And I wonder[A], I wa wa wa wa [F#m]wonder
                Wh[A]y  a why, why, why,[F#m] why

Why she ran away
                And I wo[D]nder a where will she s[E]tay

Chorus          My little run[A]away
                A r[A]un, run, run, run
                [D]Runaway      [E]

Solo;

    [Am]                                [G] 
e|--0--0---0-----0---0---------0----3---2--3------------------------2-3|
B|--1----1---1-----1----1----1------3--------2--3--------------2-3-----|
G|--2----------2-----------2--------0--------------3-4-----3-4---------|
D|--2-------------------------------0------------------4-5-------------|
A|--0-------------------------------2----------------------------------|
E|--0-------------------------------3----------------------------------|


F E (strum)
e|--1--1-0-1-----1-0-1--------1----0-----------|-----------------------|
B|--1--------1---------1---1-------0-----------|-----------------------|
G|--2----------2---------2---------1-----------|--( repeat )-----------|
D|--3------------------------------2-----------|-----------------------|
A|--3------------------------------2-----------|-----------------------|
E|--1------------------------------0-----------|-----------------------|


Repeat Bridge

Repeat Chorus

thats it. nice and easy. Any qs/comments , mail me.

Important: The song above is NOT stored on the Chordie server. The original song is hosted at www.guitaretab.com. Chordie works as a search engine and provides on-the-fly formatting. Chordie does not index songs against artists'/composers' will. To remove this song please click here.

Text color:
Chord color:
Chord grids: 
Font size:    
Page size: 

A Am D E F F#m G
variations - click chord images

Login - add to songbook

Transpose chords

Tuning

Rating click stars to rate

Layout
Accuracy

SHARE PAGE  




You need to log in to post comments