Guitar Tabs, Chords and Lyrics


Falling   John Frusciante



these two parts are played througout the whole song, with some little variations that 
could figure out for phrase 2.  i use a capo on the 6th fret cause its just easier, and it 
better to have the strings ringing out as you change the chord.


phrase 1
|---------------------------------------------|
|---------------------------------------------|
|-----6-8-----6-8--------6-8-----6-8---6-8----|
|---------------------------------------------|
|-6-6-----6-6-----6-6--6-----6-6-----6--------|
|---------------------------------------------|

phrase 2
|------------------------6----|
|------------------------7----|
|-----------8------6---8------|
|-----8---8-----8----8--------|
|---9---6-----9---------------|


Important: The song above is NOT stored on the Chordie server. The original song is hosted at www.guitaretab.com. Chordie works as a search engine and provides on-the-fly formatting. Chordie does not index songs against artists'/composers' will. To remove this song please click here.

This song is displayed as text-only. Transposing and tuning is only available for chordpro-songs.

Login - add to songbook

Rating click stars to rate

Layout
Accuracy

SHARE PAGE  




You need to log in to post comments