Guitar Tabs, Chords and Lyrics


Ah Yom  John Frusciante

  [A#]     [F]    [C]    [Gsus4]                                                                              
e:-x---x-------3--|
b:-6---1---1---1--|
g:-7---2---0---0--|
d:-8---3---2---0--|
a:-8---3---3---2--|
E:-6---1-------3--|



I've Got A [A#]Million To [F]Choose From [C]
A Million [A#]Ways Things Can [F]Be.  [C]
In Dull [A#]Moments I [F]Feel Like[C]
There's A Million [A#]Options I [F]See.[C]  [Gsus4]
The [A#]Trouble Is [F]Chosing [C]One
The [A#]Trouble Is [F]Doing [C]One
(Electric guitar comes in at approx 0:30 with this riff, chords repeat first part of verse.)

e:-10-------8---------------10-------8-------15---|
b:----11------10---------------11------10---------|
g:-------12------10--10/12--------12------10------|
d:------------------------------------------------|
a:------------------------------------------------|
E:------------------------------------------------|
e:-10-------8-------17^--10-------8------------|
b:----11------10------------11------10---------|
g:-------12------10------------12------10--7~--|
d:---------------------------------------------|
a:---------------------------------------------|
E:---------------------------------------------|



CHORUS

"Thats How Actions Should Be.."

e:-11-10----------13-10--8h10-8--8--|
b:-------11----11----11----------8--|
g:----------12-------12----------9--|
d:-------------------------------10-|
a:----------------------------------|
E:----------------------------------|


"Step after Step.."

e:-8--8-10-11-10-8------10-8------------------------|
b:-8---------------11-8------11p10-8h10-8--6--8-----|
g:-----------------------------------------------5--|
d:--------------------------------------------------|
a:--------------------------------------------------|
E:--------------------------------------------------|


"When we run..."

e:-8--8-10-11-10-8------13-8-6-8--10------------------------|
b:-8---------------11-8--------8--8-------------------------|
g:-----------------------------------10-12---/7-10~--/7-10~-|
d:----------------------------------------------------------|
a:----------------------------------------------------------|
E:----------------------------------------------------------|



Repeat Verse (w/Electric guitar part)


CHORUS

"All Of The Energy.."
e:-11-10----------13-10--8h10-8--8--|
b:-------11----11----11----------8--|
g:----------12-------12----------9--|
d:-------------------------------10-|
a:----------------------------------|
E:----------------------------------|


"Is Nothing More.."
e:-8--8-10-11-10-8------10-8------------------------|
b:-8---------------11-8------11p10-8h10-8--6--8-----|
g:-----------------------------------------------5--|
d:--------------------------------------------------|
a:--------------------------------------------------|
E:--------------------------------------------------|


"The Whole Course..."
e:-8--8-10-11-10-8------13-8-6-8--10---------------------------------------|
b:-8---------------11-8--------8--8----------------------------------------|
g:-----------------------------------10^------10------5------10------5-7^--|
d:---------------------------------------8h10----8h10---8h10----8h10-------|
a:-------------------------------------------------------------------------|
E:-------------------------------------------------------------------------|



Outro (Repeat Chords For Verse)

Important: The song above is NOT stored on the Chordie server. The original song is hosted at www.guitaretab.com. Chordie works as a search engine and provides on-the-fly formatting. Chordie does not index songs against artists'/composers' will. To remove this song please click here.

Text color:
Chord color:
Chord grids: 
Font size:    
Page size: 

A# C F Gsus4
variations - click chord images

Login - add to songbook

Transpose chords

Tuning

Rating click stars to rate

Layout
Accuracy

SHARE PAGE  




You need to log in to post comments