Guitar Tabs, Chords and Lyrics


With No One  John Frusciante

-=-=-=-=-=-=-=-=-=-=-=-=-=-=-=-=-=-=-



-=-=-=-=-=-=-=-=-=-=-=-=-=-=-=-=-=-=-

-=-=-=-=-=-=-=-=-=-=-=-=-=-=-=-=-=-=-
   [A]                                                                                 
E|---------------|
B|-----0---2--0--|
G|---2-----------|
D|-2-----2-------|
A|---------------|
e|---------------|

[A]    Se[E]al your wide shores   [F#m]
[A]   With [E]no one in bet[F#m]ween
[A]   You [E]feel your fading d[F#m]ial
You [A]know someone's [E]happened
And you s[F#m]houldn't feed these t[E]hings but [D]lets [A]go
[A]Fading away your [E]nights
You fade to w[F#m]hite
[A]Fading away your [E]nights
You fade to w[F#m]hite
[A]Fading away your [E]nights
You fade to w[F#m]hite
[A]Fading away your [E]nights
You fade to w[F#m]hite    [E]     [D]
You [F#m]lay me down as I [E]go to the [D]store
[F#m]Sorrow ate me, I'm not [E]me anymo[D]re   [E]   [D]
[F#m]Play these heavens o[E]ne more t[D]ime
[F#m]I'm not yours and I[E]'m not m[D]ine    [E]    [D]
[F#m]Fly around [E]  [D]
[F#m]Fly around [E]  [D]
[F#m]Fly around [E]  [D]
[E]Fly around [D]
Repeat: "fly around" part until the end.

Chords:

    [A]      [E]      [D]     [F#m]                                                               
E|--0--|--0--|--2--|--2--|
B|--2--|--0--|--3--|--2--|
G|--2--|--1--|--2--|--2--|
D|--2--|--2--|--0--|--4--|
A|--0--|--2--|--X--|--4--|
e|--X--|--0--|--X--|--2--|
-=-=-=-=-=-=-=-=-=-=-=-=-=--=-=-=-=-=--=-=-=-=-=-=-=-=-=-=-=-=-=--=-=-=-=-=--

Produce By John Frusciante
Mixed By Jimmy Boyled
Mixing Assisted By Brian Grimmel
Mastered By Vlado Meller At Sony Music Studio, New York.
-=-=-=-=-=-=-=-=-=-=-=-=-=--=-=-=-=-=--=-=-=-=-=-=-=-=-=-=-=-=-=--=-=-=-=-=--				


Important: The song above is NOT stored on the Chordie server. The original song is hosted at www.guitaretab.com. Chordie works as a search engine and provides on-the-fly formatting. Chordie does not index songs against artists'/composers' will. To remove this song please click here.

Text color:
Chord color:
Chord grids: 
Font size:    
Page size: 

A D E F#m
variations - click chord images

Login - add to songbook

Transpose chords

Tuning

Rating click stars to rate

Layout
Accuracy

SHARE PAGE  




You need to log in to post comments